Tabs von diesem Lied gesucht

von jonbovi, 19.07.11.

  1. jonbovi

    jonbovi Registrierter Benutzer

    Im Board seit:
    13.01.10
    Beiträge:
    29
    Zustimmungen:
    0
    Kekse:
    10
    Erstellt: 19.07.11   #1
    Hallo Leute,
    ich suche die Tabs für dieses Lied hier. Das einzige was ich bisher glaube rausgefunden zu haben ist, dass es sich beim ersten Akkord um ein D-Moll handelt und beim zweiten, eventuell
    um ein A-Moll 7. Bin mir da überhaupt nicht sicher. Und was das Picking betrifft hab ich erst recht keinen Plan. Wäre jemand bereit die Tabs aus dem Lied in eine Tabelle zu fassen?
    Hier der Link:
    [video=youtube;vbdsjsmxvW0]http://www.youtube.com/watch?v=vbdsjsmxvW0[/video]

    MfG
    jonbovi
     
  2. Philmaster

    Philmaster Registrierter Benutzer

    Im Board seit:
    02.05.11
    Beiträge:
    455
    Zustimmungen:
    88
    Kekse:
    1.423
    Erstellt: 19.07.11   #2
    1. Akkord Dm:
    ------1-------------1------------1------
    -----------3------------3------------3--
    ----------------2------------2----------
    --0-------------------------------------
    -----------------------------------------
    ----------------------------------------
    2. Akkord A7
    ----0---------0----------0---------------
    --------2--------2-----------2----------
    ----------------------0----------------
    -----------2---------------------------
    --0------------------------------------
    --------------------------------------

    3.Akkord Em7/b5
    -----0-----------0---------0-------------
    ----------3---------3-----------3-------
    ------------------------0---------------
    --------------0------------------------
    --1------------------------------------
    ---------------------------------------

    Oder so in der Art. Reihenfolge hört man ja ganz gut.
     

Diese Seite empfehlen