2 Jahre E-Gitarre und trotzdem Probleme bei solchen sachen...

von ThrashMetal, 23.09.05.

  1. ThrashMetal

    ThrashMetal Registrierter Benutzer

    Im Board seit:
    05.05.05
    Zuletzt hier:
    14.11.05
    Beiträge:
    297
    Zustimmungen:
    0
    Kekse:
    34
    Erstellt: 23.09.05   #1
    Hey Leute, ich spiele jetzt ca. 2 Jahre Gitarre und habe trotzdem noch probleme bei solchen clean sachen wie bei Testament....

    hört es euch an und sagt mir wie lange ihr ca. dafür brauchen würdet um es im original tempo zu spielen und sauber natürlich, ich hab irgendwie voll probleme damit.

    und hier für die Leute die kein Guitar Pro haben:

    Acoustic Guitar

    E||---------5---8--7-5-4---4---4---|---------5---8------------------|
    B||-----5------------------------5-|-----5----------6-5-----------5-|
    G||----------------------7---7---5-|-------5------------7---7---7-5-|
    D||---7---7---7--------------------|---7-------7----------6---6-----|
    A||--------------------------------|--------------------------------|
    E||--------------------------------|--------------------------------|


    ---------5---8--13-12-10----10----10-13-|--13--10--7---4--5---------|
    -----5----------------------------------|--15--12--9---6--5----5----|
    -------5-----------------13----13-------|--16--13--10--7--5----4----|
    ---7---7---7----------------------------|-----------------7----6----|
    ----------------------------------------|---------------------------|
    ----------------------------------------|---------------------------|


    ----------5---8--7-5-4---4---4---|---------5---8------------------|
    --5---5------------------------5-|-----5----------6-5-------------|
    --5--------------------7---7---5-|-------5------------7---7---7---|
    --7-7---7---7--------------------|---7-------7----------6---6---0-|
    ---------------------------------|--------------------------------|
    ---------------------------------|--------------------------------|


    ---------5---8--13-12-10----10----10-13-|--13--10--7---4--5---------|
    -----5----------------------------------|--15--12--9---6--5----5----|
    -----------5-------------13----13-------|--16--13--10--7--5----4----|
    ---7---7---7----------------------------|-----------------7----6----|
    ----------------------------------------|---------------------------|
    ----------------------------------------|---------------------------|


    ---------5---8--7-5-4---4---4---|---------5---8------------------|
    -----5------------------------5-|-----5----------6-5-----------5-|
    ----------------------7---7---5-|-------5------------7---7---7-5-|
    ---7---7---7--------------------|---7-------7----------6---6-----|
    --------------------------------|--------------------------------|
    --------------------------------|--------------------------------|
     

    Anhänge:

  2. msoada

    msoada Mod Emeritus Ex-Moderator

    Im Board seit:
    08.05.05
    Zuletzt hier:
    21.09.15
    Beiträge:
    4.498
    Ort:
    Belgrad
    Zustimmungen:
    62
    Kekse:
    5.984
    Erstellt: 23.09.05   #2
    Ich hab gp4, es will aber nicht so wie ich es will.

    Also beziehe ich mich auf die vorliegenden Tabs. Also einfach sieht das ja auch nihct aus, shcwer aber auch nicht wirklich so ein Mittel ding halt.

    hast du sonst immer oft Verzerrt gespielt?
    Ich habe teilweise auch immer noch das Gefühl wenn ich z.B. Californication spiele das ich was falsch mache. Ich spiele sonst nr SLayer und Konsorten. Für mich ist es immer wieder eine besondere Anstrengung was cleanes sauber zu spielen.

    Mittlweile gehts aber. Ich spiel seit 3 1/2 Jahren Gitarre. Also nicht den Kopf in den Sand stecken, das wird noch, einfach weiter üben.
     
  3. Psycho0815

    Psycho0815 Registrierter Benutzer

    Im Board seit:
    06.02.05
    Zuletzt hier:
    11.11.16
    Beiträge:
    317
    Ort:
    Bochum
    Zustimmungen:
    5
    Kekse:
    36
    Erstellt: 23.09.05   #3
    das problem bei solchen sachen ist (zumindest bei mir) das man immer auf den zettel guckt und raus kommt. also am besten möglichst auswendig lernen und es hilft auch sehr wenn man das ganze in abschnitte unterteilt.
     
  4. wonder1908

    wonder1908 Gesperrter Benutzer

    Im Board seit:
    18.06.05
    Zuletzt hier:
    28.10.06
    Beiträge:
    185
    Zustimmungen:
    0
    Kekse:
    116
    Erstellt: 23.09.05   #4
    So ist's ein wenig übersichtlicher...

    Code:
    E||---------5---8--7-5-4---4---4---|---------5---8------------------|
    B||-----5------------------------5-|-----5----------6-5-----------5-|
    G||----------------------7---7---5-|-------5------------7---7---7-5-|
    D||---7---7---7--------------------|---7-------7----------6---6-----|
    A||--------------------------------|--------------------------------|
    E||--------------------------------|--------------------------------|
     
     
    ---------5---8--13-12-10----10----10-13-|--13--10--7---4--5---------|
    -----5----------------------------------|--15--12--9---6--5----5----|
    -------5-----------------13----13-------|--16--13--10--7--5----4----|
    ---7---7---7----------------------------|-----------------7----6----|
    ----------------------------------------|---------------------------|
    ----------------------------------------|---------------------------|
     
     
    ----------5---8--7-5-4---4---4---|---------5---8------------------|
    --5---5------------------------5-|-----5----------6-5-------------|
    --5--------------------7---7---5-|-------5------------7---7---7---|
    --7-7---7---7--------------------|---7-------7----------6---6---0-|
    ---------------------------------|--------------------------------|
    ---------------------------------|--------------------------------|
     
     
    ---------5---8--13-12-10----10----10-13-|--13--10--7---4--5---------|
    -----5----------------------------------|--15--12--9---6--5----5----|
    -----------5-------------13----13-------|--16--13--10--7--5----4----|
    ---7---7---7----------------------------|-----------------7----6----|
    ----------------------------------------|---------------------------|
    ----------------------------------------|---------------------------|
     
     
    ---------5---8--7-5-4---4---4---|---------5---8------------------|
    -----5------------------------5-|-----5----------6-5-----------5-|
    ----------------------7---7---5-|-------5------------7---7---7-5-|
    ---7---7---7--------------------|---7-------7----------6---6-----|
    --------------------------------|--------------------------------|
    --------------------------------|--------------------------------| 
    Gruß Wonder
     
  5. Arvir

    Arvir Registrierter Benutzer

    Im Board seit:
    02.10.04
    Zuletzt hier:
    11.05.14
    Beiträge:
    1.161
    Zustimmungen:
    4
    Kekse:
    3.583
    Erstellt: 23.09.05   #5
    Hm, schau dir doch mal nen Stringskipping Workshop an, der sollte dien Problem beheben.
     
  6. Freakshow

    Freakshow Registrierter Benutzer

    Im Board seit:
    06.09.05
    Zuletzt hier:
    23.03.15
    Beiträge:
    403
    Ort:
    Am Arsch der Welt
    Zustimmungen:
    3
    Kekse:
    894
    Erstellt: 24.09.05   #6
    Mh.. ich denk mal, du solltest nicht verzweifeln. Versuch es erst so langsam wie möglich zu spielen, so dass es schon richtig langweilt. Und wenn du das drin hast, mach es schneller, bis du das wiederrum drin hast. So hab ich das gerade versuch und kann's jetzt schon nach 3 Stunden üben, in orginalgeschwindigkeit relativ sauber spielen. Und ich spiel erst n Jahr.
     
  7. Marinus vd Lubbe

    Marinus vd Lubbe Registrierter Benutzer

    Im Board seit:
    26.02.05
    Zuletzt hier:
    16.09.13
    Beiträge:
    135
    Zustimmungen:
    0
    Kekse:
    75
    Erstellt: 24.09.05   #7
    Das ist halt etwas anders als vollverzerrte "Solata", muss man genauso lernen.
     
  8. ThrashMetal

    ThrashMetal Threadersteller Registrierter Benutzer

    Im Board seit:
    05.05.05
    Zuletzt hier:
    14.11.05
    Beiträge:
    297
    Zustimmungen:
    0
    Kekse:
    34
    Erstellt: 25.09.05   #8
    toll jez komm ich mir noch blöder vor :(
     
  9. Maxi

    Maxi Registrierter Benutzer

    Im Board seit:
    04.09.05
    Zuletzt hier:
    6.12.16
    Beiträge:
    3.849
    Zustimmungen:
    350
    Kekse:
    5.099
    Erstellt: 25.09.05   #9
    find das jetzt nicht so schwer, obwohl ich normalerweiße nur mit zerre spiele....
    aber ich übe seit etwa 2Wochen clean,,, :D
    auswendig lernen ist ''oft'' am besten!

    mFG- Maxi
     
  10. ThrashMetal

    ThrashMetal Threadersteller Registrierter Benutzer

    Im Board seit:
    05.05.05
    Zuletzt hier:
    14.11.05
    Beiträge:
    297
    Zustimmungen:
    0
    Kekse:
    34
    Erstellt: 25.09.05   #10
    nimmt das mal auf, und ich höre mir es an :) wie sauber ihr es spielt
     
  11. -=Carlos=-

    -=Carlos=- Registrierter Benutzer

    Im Board seit:
    22.06.05
    Zuletzt hier:
    3.10.08
    Beiträge:
    399
    Zustimmungen:
    0
    Kekse:
    45
    Erstellt: 25.09.05   #11
    Na ja, man würd' das mit den Fingern picken oder? Wenn ja würd ich ein bisschen barcuehn, Fingerpicking ist nicht meine Stärke.
     
Die Seite wird geladen...

mapping