5 sec Stelle raushören

von reaper_cob, 03.04.07.

  1. reaper_cob

    reaper_cob Registrierter Benutzer

    Im Board seit:
    02.03.06
    Zuletzt hier:
    31.12.09
    Beiträge:
    298
    Ort:
    Mülheim an der Ruhr
    Zustimmungen:
    0
    Kekse:
    74
    Erstellt: 03.04.07   #1
    tjoa ich hab ein problem und zwar bräuchte ich eine ganz kurze stelle rausgehört. wenn mir einer helfen könnte wär das echt knorke..! :great:
    der song heisst pure von mors principium est und die stelle ist bei ca. 54/55 sekunden.

    ich spiel dsa eigentlich meistens so wie hier:
    e 8-----8--6-----6----------5-----
    h-----5------3-----6-5-6-8--8-6-8
    g---5----------3--------------------

    http://rapidshare.com/files/24110545/01_Pure.wma.html
     
  2. dynasty

    dynasty Registrierter Benutzer

    Im Board seit:
    04.09.05
    Zuletzt hier:
    5.04.15
    Beiträge:
    187
    Ort:
    Wardenburg
    Zustimmungen:
    0
    Kekse:
    73
    Erstellt: 03.04.07   #2
    1. Guitar

    Code:
                     Pure                                       
    
    
                                                                 Mors Principium Est
    Track 1
    
    
    
         E  E  E  E  E  E  E  E     E  E  E  E  E  E  S S S S  
    E||--------------------------|----------------------------|
    B||--------------------------|----------------------------|
    G||--------------------------|----------------------------|
    D||--------------------------|----------------------------|
    A||--7--7-----7--7-----7--7--|-----7--7-----7--7----------|
    E||--------0--------0--------|--0--------0--------0-0-0-0-|
    
    
      E  E  E  E  E  E  E  E     E  E  E  E  E  E  S S S S  
    --------------------------|----------------------------|
    --------------------------|----------------------------|
    --------------------------|----------------------------|
    --------------------------|----------------------------|
    --9--9-----9--9-----9--9--|-----9--9-----9--9----------|
    --------0--------0--------|--0--------0--------0-0-0-0-|
    
    
       E   E  E   E   E  E   E   E     E   E   E  E   E   E  S S S S  
    --------------------------------|--------------------------------|
    --------------------------------|--------------------------------|
    --------------------------------|--------------------------------|
    --------------------------------|--------------------------------|
    --10--10-----10--10-----10--10--|-----10--10-----10--10----------|
    ----------0----------0----------|--0----------0----------0-0-0-0-|
    
    
       E   E  E   E   E  E   E   E     E   E   Q    S   S  S   S  S   S  S   S  
    --------------------------------|------------------------------------------|
    --------------------------------|------------------------------------------|
    --------------------------------|------------------------------------------|
    --------------------------------|------------------------------------------|
    --12--12-----12--12-----12--12--|-----12--12----9h-10p-9h-10p-9h-10p-9h-10-|
    ----------0----------0----------|--0---------------------------------------|
    
    
      E  E  E  E  E  E  E  E     E  E  E  E  E  E  S S S S  
    --------------------------|----------------------------|
    --------------------------|----------------------------|
    --------------------------|----------------------------|
    --------------------------|----------------------------|
    --7--7-----7--7-----7--7--|-----7--7-----7--7----------|
    --------0--------0--------|--0--------0--------0-0-0-0-|
    
    
      E  E  E  E  E  E  E  E     E  E  E  E  E  E  S S S S  
    --------------------------|----------------------------|
    --------------------------|----------------------------|
    --------------------------|----------------------------|
    --------------------------|----------------------------|
    --9--9-----9--9-----9--9--|-----9--9-----9--9----------|
    --------0--------0--------|--0--------0--------0-0-0-0-|
    
    
       E   E  E   E   E  E   E   E     E   E   E  E   E   E  S S S S  
    --------------------------------|--------------------------------|
    --------------------------------|--------------------------------|
    --------------------------------|--------------------------------|
    --------------------------------|--------------------------------|
    --10--10-----10--10-----10--10--|-----10--10-----10--10----------|
    ----------0----------0----------|--0----------0----------0-0-0-0-|
    
    
       E   E  E   E   E  E   E   E     E  Q.     Q.     E   
    --------------------------------|----------------------|
    --------------------------------|----------------------|
    --------------------------------|----------------------|
    --------------------------------|----------------------|
    --12--12-----12--12-----12--12--|----------------------|
    ----------0----------0----------|----------------------|
    
    
         PM PM    PM PM    PM    PM    PM PM    PM PM     
      E  E  E  E  E  E  E  E     E  E  E  E  E  E  E  E   
    --------------------------|--------------------------|
    --------------------------|--------------------------|
    --------------------------|--------------------------|
    --------------------------|--------------------------|
    --7--------7--------7-----|-----7--------7--------7--|
    -----0--0-----0--0-----0--|--0-----0--0-----0--0-----|
    
    
         PM PM    PM PM    PM    PM    PM PM    PM PM     
      E  E  E  E  E  E  E  E     E  E  E  E  E  E  E  E   
    --------------------------|--------------------------|
    --------------------------|--------------------------|
    --------------------------|--------------------------|
    --------------------------|--------------------------|
    --9--------9--------9-----|-----9--------9--------9--|
    -----0--0-----0--0-----0--|--0-----0--0-----0--0-----|
    
    
          PM PM     PM PM     PM    PM     PM PM     PM PM      
       E  E  E   E  E  E   E  E     E   E  E  E   E  E  E   E   
    -----------------------------|-----------------------------|
    -----------------------------|-----------------------------|
    -----------------------------|-----------------------------|
    -----------------------------|-----------------------------|
    --10--------10--------10-----|-----10--------10--------10--|
    ------0--0------0--0------0--|--0------0--0------0--0------|
    
    
          PM PM     PM PM     PM    PM     PM PM  PM PMPM PM PM PM PM PM  
       E  E  E   E  E  E   E  E     E   E  E  E   S  S S  S  S  S  S  S   
    -----------------------------|---------------------------------------|
    -----------------------------|---------------------------------------|
    -----------------------------|---------------------------------------|
    -----------------------------|---------------------------------------|
    --12--------12--------12-----|-----12--------10-10-9--9--7--7--9--9--|
    ------0--0------0--0------0--|--0------0--0--------------------------|
    
    
         PM PM    PM PM    PM    PM    PM PM    PM PM     
      E  E  E  E  E  E  E  E     E  E  E  E  E  E  E  E   
    --------------------------|--------------------------|
    --------------------------|--------------------------|
    --------------------------|--------------------------|
    --------------------------|--------------------------|
    --7--------7--------7-----|-----7--------7--------7--|
    -----0--0-----0--0-----0--|--0-----0--0-----0--0-----|
    
    
         PM PM    PM PM    PM    PM    PM PM    PM PM     
      E  E  E  E  E  E  E  E     E  E  E  E  E  E  E  E   
    --------------------------|--------------------------|
    --------------------------|--------------------------|
    --------------------------|--------------------------|
    --------------------------|--------------------------|
    --9--------9--------9-----|-----9--------9--------9--|
    -----0--0-----0--0-----0--|--0-----0--0-----0--0-----|
    
    
          PM PM     PM PM     PM    PM     PM PM     PM PM      
       E  E  E   E  E  E   E  E     E   E  E  E   E  E  E   E   
    -----------------------------|-----------------------------|
    -----------------------------|-----------------------------|
    -----------------------------|-----------------------------|
    -----------------------------|-----------------------------|
    --10--------10--------10-----|-----10--------10--------10--|
    ------0--0------0--0------0--|--0------0--0------0--0------|
    
    
          PM PM     PM PM     PM    PM     PM PM  PM PMPM PM PM PM PM PM  
       E  E  E   E  E  E   E  E     E   E  E  E   S  S S  S  S  S  S  S   
    -----------------------------|---------------------------------------|
    -----------------------------|---------------------------------------|
    -----------------------------|---------------------------------------|
    -----------------------------|---------------------------------------|
    --12--------12--------12-----|-----12--------10-10-9--9--7--7--9--9--|
    ------0--0------0--0------0--|--0------0--0--------------------------|
    
    
      Q.     E   E   E   E  E     Q.     E   E   E   E  E   
    ---------------------------|---------------------------|
    ---------------------------|---------------------------|
    --9------9--11--12--11--9--|---------9--11--12--11--9--|
    ---------------------------|--9------------------------|
    ---------------------------|---------------------------|
    ---------------------------|---------------------------|
    
    
      Q.     E   E   E   E  E      Q     Q     S  S  E  Q     
    ---------------------------|-----------------------------|
    ---------------------------|--10-------------------------|
    ---------9--11--12--11--9--|--------12----11-12-11--9----|
    --7------------------------|-----------------------------|
    ---------------------------|-----------------------------|
    ---------------------------|-----------------------------|
    
    
      Q.     E   E   E   E  E     Q.     E   E   E   E  E     H        H         
    ---------------------------|---------------------------|--8--------7--------|
    ---------------------------|---------------------------|--------------------|
    ---------9--11--12--11--9--|---------9--11--12--11--9--|--------------------|
    --9------------------------|--9------------------------|--------------------|
    ---------------------------|---------------------------|--------------------|
    ---------------------------|---------------------------|--------------------|
    
    
      H        H           Q.     E   E   E   E  E     Q.     E   E   E   E  E   
    --------------------|---------------------------|---------------------------|
    --7--------8--------|---------------------------|---------------------------|
    --------------------|--9------9--11--12--11--9--|---------9--11--12--11--9--|
    --------------------|---------------------------|--9------------------------|
    --------------------|---------------------------|---------------------------|
    --------------------|---------------------------|---------------------------|
    
    
      Q.     E   E   E   E  E      Q     Q     S  S  E  Q     
    ---------------------------|-----------------------------|
    ---------------------------|--10-------------------------|
    ---------9--11--12--11--9--|--------12----11-12-11--9----|
    --7------------------------|-----------------------------|
    ---------------------------|-----------------------------|
    ---------------------------|-----------------------------|
    
    
      Q.     E   E   E   E  E     Q.     E   E   E   E  E     H        H         
    ---------------------------|---------------------------|--8--------7--------|
    ---------------------------|---------------------------|--------------------|
    --9------9--11--12--11--9--|---------9--11--12--11--9--|--------------------|
    ---------------------------|--9------------------------|--------------------|
    ---------------------------|---------------------------|--------------------|
    ---------------------------|---------------------------|--------------------|
    
    
      H        H                                                         
    --------------------|-----------|-----------|-----------|-----------|
    --7--------8--------|-----------|-----------|-----------|-----------|
    --------------------|-----------|-----------|-----------|-----------|
    --------------------|-----------|-----------|-----------|-----------|
    --------------------|-----------|-----------|-----------|-----------|
    --------------------|-----------|-----------|-----------|-----------|
    
    
    -----------|-----------|-----------|-----------|-----------|-----------|
    -----------|-----------|-----------|-----------|-----------|-----------|
    -----------|-----------|-----------|-----------|-----------|-----------|
    -----------|-----------|-----------|-----------|-----------|-----------|
    -----------|-----------|-----------|-----------|-----------|-----------|
    -----------|-----------|-----------|-----------|-----------|-----------|
    
    
    -----------|-----------|-----------|-----------|-----------|-----------|
    -----------|-----------|-----------|-----------|-----------|-----------|
    -----------|-----------|-----------|-----------|-----------|-----------|
    -----------|-----------|-----------|-----------|-----------|-----------|
    -----------|-----------|-----------|-----------|-----------|-----------|
    -----------|-----------|-----------|-----------|-----------|-----------|
    
    
         PM PM    PM PM    PM    PM    PM PM                
      E  E  E  E  E  E  E  E     E  E  E  E   E   E  E  E   
    --------------------------|----------------------------|
    --------------------------|----------------------------|
    --------------------------|----------------------------|
    --------------------------|----------------------------|
    --7-----------------9-----|--------------12--10--9-----|
    -----0--0--7--0--0-----0--|--0--7--0--0-------------7--|
    
    
         PM PM    PM PM    PM    PM    PM PM                  
      E  E  E  E  E  E  E  E     E  E  E  E  S S S S S S S S  
    --------------------------|------------------------------|
    --------------------------|------------------------------|
    --------------------------|------------------------------|
    --------------------------|------------------------------|
    --7-----------------9-----|--------------3-5-3-5-7-9-7-9-|
    -----0--0--7--0--0-----0--|--0--7--0--0------------------|
    
    
         PM PM    PM PM    PM    PM    PM PM                                        
      E  E  E  E  E  E  E  E     E  E  E  E   E   E  E  E     Q    E  Q    E  Q     
    --------------------------|----------------------------|-----------------------|
    --------------------------|----------------------------|-----------------------|
    --------------------------|----------------------------|-----------------------|
    --------------------------|----------------------------|--2-------2-------2----|
    --7-----------------9-----|--------------12--10--9-----|--0-------0-------0----|
    -----0--0--7--0--0-----0--|--0--7--0--0-------------7--|-----------------------|
    
    
                 PM PM PM PM PM PM PM PM       PM PM    PM PM    PM  
      E  Q    E  S  S  S  S  S  S  S  S     E  E  E  E  E  E  E  E   
    -------------------------------------|--------------------------|
    -------------------------------------|--------------------------|
    -------------------------------------|--------------------------|
    -----2----L--------------------------|--------------------------|
    -----0----L--2--2--2--2--2--2--2--2--|--7-----------------9-----|
    -------------------------------------|-----0--0--7--0--0-----0--|
    
    
      PM    PM PM                     PM PM    PM PM    PM  
      E  E  E  E   E   E  E  E     E  E  E  E  E  E  E  E   
    ----------------------------|--------------------------|
    ----------------------------|--------------------------|
    ----------------------------|--------------------------|
    ----------------------------|--------------------------|
    --------------12--10--9-----|--7-----------------9-----|
    --0--7--0--0-------------7--|-----0--0--7--0--0-----0--|
    
    
      PM    PM PM                       PM PM    PM PM    PM  
      E  E  E  E  S S S S S S S S    E  E  E  E  E  E  E  E   
    ------------------------------|--------------------------|
    ------------------------------|--------------------------|
    ------------------------------|--------------------------|
    ------------------------------|--------------------------|
    --------------3-5-3-5-7-9-7-9-|--7-----------------9-----|
    --0--7--0--0------------------|-----0--0--7--0--0-----0--|
    
    
      PM    PM PM                                        
      E  E  E  E   E   E  E  E     Q    E  Q    E  Q     
    ----------------------------|-----------------------|
    ----------------------------|-----------------------|
    ----------------------------|-----------------------|
    ----------------------------|--2-------2-------2----|
    --------------12--10--9-----|--0-------0-------0----|
    --0--7--0--0-------------7--|-----------------------|
    
    
                 PM PM PM PM PM PM PM PM                                          
      E  Q    E  S  S  S  S  S  S  S  S     W                   W                 
    -------------------------------------|-------------------|-------------------|
    -------------------------------------|-------------------|-------------------|
    -------------------------------------|--5----------------|--L----------------|
    -----2----L--------------------------|--5----------------|--L----------------|
    -----0----L--2--2--2--2--2--2--2--2--|--3----------------|--L----------------|
    -------------------------------------|-------------------|-------------------|
    
    
      W                   W                  
    -------------------|-------------------||
    -------------------|-------------------||
    --5----------------|--L----------------||
    --5----------------|--L----------------||
    --3----------------|--L----------------||
    -------------------|-------------------||
    
    
    
    
    Duration Legend
    ---------------
    W - whole
    H - half
    Q - quarter
    E - 8th
    S - 16th
    T - 32nd
    X - 64th
    . - note dotted
    |-n-|  - n-tuplets
    
    
    Tablature Legend
    ----------------
    L - tied note
    x - dead note
    g - grace note
    (n) - ghost note
    > - accentuded note
    NH - natural harmonic
    AH - artificial harmonic
    TH - tapped harmonic
    SH - semi harmonic
    PH - pitch harmonic
    h - hammer on
    p - pull off
    b - bend
    br - bendRelease
    pb - preBend
    pbr - preBendRelease
    brb - bendReleaseBend
    \n/ - tremolo bar dip
    \n - tremolo bar dive
    -/n - tremolo bar Release up
    /n\ - tremolo bar inverted dip
    /n - tremolo bar return
    -\n - tremolo bar Release down
    S - shift slide
    s - legato slide
    / -  slide into from below or out of upwards
    \ -  slide into from above or out of downwards
    ~ - vibrato
    W - wide vibrato
    tr - trill
    TP - tremolo picking
    T - tapping
    S - slap
    P - pop
    < - fade in
    ^ - brush up
    v - brush down
    
     
  3. Gore-Illa

    Gore-Illa Registrierter Benutzer

    Im Board seit:
    14.11.06
    Zuletzt hier:
    22.03.08
    Beiträge:
    147
    Zustimmungen:
    0
    Kekse:
    25
    Erstellt: 03.04.07   #3
    ich hab das ganze jetzt mal so wie ich es spielen würde in guitar pro aufgetabbt.

    mfg,
    gore-illa
     

    Anhänge:

  4. reaper_cob

    reaper_cob Threadersteller Registrierter Benutzer

    Im Board seit:
    02.03.06
    Zuletzt hier:
    31.12.09
    Beiträge:
    298
    Ort:
    Mülheim an der Ruhr
    Zustimmungen:
    0
    Kekse:
    74
    Erstellt: 03.04.07   #4
    @dynasty: den tab kenn ich aber da hört man ja schon dass das keine 4 töne sind.

    @gore: das hört sich echt gut an. vielen dank!
     
  5. Gore-Illa

    Gore-Illa Registrierter Benutzer

    Im Board seit:
    14.11.06
    Zuletzt hier:
    22.03.08
    Beiträge:
    147
    Zustimmungen:
    0
    Kekse:
    25
    Erstellt: 03.04.07   #5
    Der Dank liegt ganz auf meiner Seite. Die Band war mir vorher nämlich gänzlich unbekannt und die gefallen mir ausgesprochen gut^^
     
  6. reaper_cob

    reaper_cob Threadersteller Registrierter Benutzer

    Im Board seit:
    02.03.06
    Zuletzt hier:
    31.12.09
    Beiträge:
    298
    Ort:
    Mülheim an der Ruhr
    Zustimmungen:
    0
    Kekse:
    74
    Erstellt: 03.04.07   #6
    ich mag am liebsten das album the unborn. übrigens haben die vor kurzem erst n neues album rausgebracht: liberation=termination
     
Die Seite wird geladen...

mapping