Aint no sunshine tab

von nypd5, 17.02.07.

  1. nypd5

    nypd5 Registrierter Benutzer

    Im Board seit:
    17.02.07
    Zuletzt hier:
    26.02.07
    Beiträge:
    3
    Zustimmungen:
    0
    Kekse:
    10
    Erstellt: 17.02.07   #1
    Hi ich suche drindgend tabs für aint no sunshine von bill withers.

    ich hab schon etliche tabs bei GOOGLE und auf den StandartTabseiten gefunden, aber es ist bisher nciht das richtige dabei. Zum einen suche ich den tab welchen er im Video verwendet und aus der aufgepeppten Version wo Percussion usw. mit drin ist, also zum zupfen.

    Wäre schön wenn ich hier mal fündig werden könnte :)
     
  2. Fastel

    Fastel Helpful & Friendly User HFU

    Im Board seit:
    11.04.04
    Zuletzt hier:
    29.11.16
    Beiträge:
    5.925
    Ort:
    Tranquility Base
    Zustimmungen:
    565
    Kekse:
    18.025
    Erstellt: 18.02.07   #2
    ich bin nicht ganz sicher ob das die richtige version ist. wenn ja dann dann sag bescheid und ich gebe den rest...

    ---------------------------------------|--3-----------------------
    --------------0-1---0------------------|--1-------0-------0-------
    ----0--0-2---------------0----2--------|--2-------0-------0--------
    -2----------------------------------2--|----------0-------0-------
    ------------------------------0--------|------------------------0--
    --------------------0------------------|------0--------3-----------
     
  3. nypd5

    nypd5 Threadersteller Registrierter Benutzer

    Im Board seit:
    17.02.07
    Zuletzt hier:
    26.02.07
    Beiträge:
    3
    Zustimmungen:
    0
    Kekse:
    10
    Erstellt: 18.02.07   #3
    also den tab hab ich auch, der anfang ist auch richtig und ich spiele ihn so aber dann hörts sich etwas verkokrst an ^^ also nicht so wie im lied.

    aber du kannst mir ja trotzdem den rest schicken vielleicht ist der rest ja doch anders.

    und dankeschön:)
     
  4. Fastel

    Fastel Helpful & Friendly User HFU

    Im Board seit:
    11.04.04
    Zuletzt hier:
    29.11.16
    Beiträge:
    5.925
    Ort:
    Tranquility Base
    Zustimmungen:
    565
    Kekse:
    18.025
    Erstellt: 18.02.07   #4
    jetzt hab ich direkt mal wieder lust drauf das zu spielen *gg

    Intro
    ---------------------------------------|--3-----------------------------| ==> 2 x
    --------------0-1---0------------------|--1-------0-------0-------------|
    ----0--0-2---------------0----2--------|--2-------0-------0-------------|
    -2----------------------------------2--|----------0-------0-------------|
    ------------------------------0--------|------------------------0---(0)-|
    --------------------0------------------|------0--------3----------------|

    ---------0---0--0---------|------------x------------|
    --h------1---1--1--3------|-3--1-3-1--x---4--4--3---|
    -0-2---------------0---0--|------------x---3--3--2--|
    -0-2----------------------|------------x------------|
    -----0--------------------|------------x------------|
    -------------------0------|---------0-------2-----1-|

    --------------------------------|------------------------------
    -3--3----3-------1--------------|-------------------------1----
    -2--2----2----------------------|--0-2--2---2--------0-2-------
    --------------------------------|--0-2--2---2--------0-2-------
    -------------------------0---0--|----------------------------0-
    -1--1----0---0---0---0----------|-----------0----0-------------

    "[...] when (s)hes gone..."
    -------------------------- ||--3--3-0-------------------------|| ==> 4x
    -------------------------- ||--1--1-0------0-------0----------||
    -------------------------- ||*-2--2-0------0-------0---------*||
    ------------------------2- ||*-------------0-------0-------2-*||
    -------------------0------ ||--------------------------0------||
    --------0-----3----------- ||----------0-------3--------------||


    3 takte fehlen noch aber da das irgendwie doch recht aufwändig ist warte ich damit bis du mir sagst dass dir das hier was bringt (hoffentlich)...
     
  5. nypd5

    nypd5 Threadersteller Registrierter Benutzer

    Im Board seit:
    17.02.07
    Zuletzt hier:
    26.02.07
    Beiträge:
    3
    Zustimmungen:
    0
    Kekse:
    10
    Erstellt: 18.02.07   #5
    nee das ist ja die Eva Cassidy Version und wenn ich mir diese Stelle:

    |------------x------------|
    |-3--1-3-1--x---4--4--3---|
    |------------x---3--3--2--|
    |------------x------------|
    |------------x------------|
    |---------0-------2-----1-|

    spiele ist das wie Krebs in den Ohren ^^.

    ich juss wohl doch den tab ausm Lied raushören :)
     
Die Seite wird geladen...

mapping