Allister - Camouflage (Guitar Pro)

von ek24, 21.05.04.

  1. ek24

    ek24 Registrierter Benutzer

    Im Board seit:
    14.09.03
    Zuletzt hier:
    17.11.11
    Beiträge:
    254
    Zustimmungen:
    0
    Kekse:
    27
    Erstellt: 21.05.04   #1
    Hallo an alle!

    Ich suche ein Guitar Pro File (gpt, gp3, gp4) von dem Song Camouflage von Allister.
    Hab mich auf MySongBook umgesehen und nichts gefunden.

    Kann mir einer weiterhelfen?

    Bedanke mich schonmal im Vorraus!
     
  2. dotvoid

    dotvoid Registrierter Benutzer

    Im Board seit:
    15.05.04
    Zuletzt hier:
    23.10.10
    Beiträge:
    1.725
    Zustimmungen:
    0
    Kekse:
    195
    Erstellt: 23.05.04   #2
    wozu? zum nachspielen?
    also imho hat man das in 10 Minuten rausgehört wenn man da halbwegs Ahnung von hat, ich würd's jetzt spontan nach zweimal hören auch gebacken bekommen, und auch das Solo ist auch so "piano", dass man's auch relativ einfach nachspielen kann. Hast du schonmal Songs rausgehört?
    Sowas wie Matchsticks von Allister is zum Einüben da fast ideal. 3 Akkorde mit Variation - schnelles Erfolgserlebnis :)
     
  3. ek24

    ek24 Threadersteller Registrierter Benutzer

    Im Board seit:
    14.09.03
    Zuletzt hier:
    17.11.11
    Beiträge:
    254
    Zustimmungen:
    0
    Kekse:
    27
    Erstellt: 23.05.04   #3
    Ne, raushören kann ich das noch nicht. Ich spiel erst seid ca. 3 Monaten. :)
    Mir geht es mehr um das Intro. Ich denke du kennst das Lied, oder?
    Das Intro spielt er ja mit Akkustik. Das hätte ich gerne nachgespielt.
     
  4. dotvoid

    dotvoid Registrierter Benutzer

    Im Board seit:
    15.05.04
    Zuletzt hier:
    23.10.10
    Beiträge:
    1.725
    Zustimmungen:
    0
    Kekse:
    195
    Erstellt: 23.05.04   #4
    So, grad mal rausgehört und hoffentlich richtig notiert:

    Erster Teil (paar wiederholungen), zweiter Teil :) .. und dann wieder erster und zweiter usw. is alles ziemlich gleich.

    E --------------------|----------------------------------------
    H -----4--------------|----------------------------------------
    G -----4------1-------|-------------1--------------------------
    D -----4---4---2------|-----6----4---2-------------------------
    A ---2-----4---2------|-----6----4---2-------------------------
    E -------2---0--------|---4----2---0---------------------------

    ich hab übrigens meine ersten Songs mit "Green Day - Nimrod" rausgehört, alles Powerchords. Und je länger man das macht desto besser kann man's. Üben üben üben :)
     
  5. ek24

    ek24 Threadersteller Registrierter Benutzer

    Im Board seit:
    14.09.03
    Zuletzt hier:
    17.11.11
    Beiträge:
    254
    Zustimmungen:
    0
    Kekse:
    27
    Erstellt: 23.05.04   #5
    Nicht schlecht! ;)
    Ich kann aber nicht ganz entziffern... soll das so heißen?

    E ---------------------|----------------------------------------
    H -----4--------------|----------------------------------------
    G -----4-------1------|---------------1--------------------------
    D -----4---4---2------|-----6----4---2-------------------------
    A -----2---4---2------|-----6----4---2-------------------------
    E ----------2---0------|-----4----2---0---------------------------
     
  6. dotvoid

    dotvoid Registrierter Benutzer

    Im Board seit:
    15.05.04
    Zuletzt hier:
    23.10.10
    Beiträge:
    1.725
    Zustimmungen:
    0
    Kekse:
    195
    Erstellt: 24.05.04   #6
    jo, hab mich bisschen an den fingerlagen orientiert, aber prinzipiell einfach nur auf die nummern achten, is schnell gemeistert :)
     
Die Seite wird geladen...

mapping