Amon Amarth - Death In Fire (Solo)

von InfectedSoul, 26.11.04.

  1. InfectedSoul

    InfectedSoul Registrierter Benutzer

    Im Board seit:
    26.11.04
    Zuletzt hier:
    11.12.04
    Beiträge:
    8
    Ort:
    Nahe Freiburg
    Zustimmungen:
    0
    Kekse:
    10
    Erstellt: 26.11.04   #1
    Hab ma ein paar Fragen zu "Death in Fire" von Amon Amarth, mal vorweg: Hab mir natürlich die Mühe gemacht und das I-net durchforscht und auch hier die Beiträge dazu durchgelesen, aber meine Fragen sind dadurch leider nicht beantwortet worden, deshalb in aller Kürze:

    1.) Auf was sind die Gitarren nun eigentlisch gestimmt? Hab schon C und H (B) gefunden,...

    2.) Die Tabs die man zum Solo findet sind ja wohl alles andere als korrekt. Weiß einer, wie es wirklich geht oder hat nen Link zu nem korrekten Tab?

    3.) Hört einer raus, ob die Einzeltöne nach der Tappingstelle mehrfach (32stel) oder nur einfach angeschlagen werden?

    --> Wäre sehr nett, wenn ihr mir helfen könntet, wir wollen das Lied mal als Cover in unser Repertoire einfügen :rock:

    Vielen Dank schonmal, Farmer (Infected Soul)
     
  2. 101010-fender

    101010-fender Registrierter Benutzer

    Im Board seit:
    20.08.03
    Zuletzt hier:
    2.10.12
    Beiträge:
    1.576
    Zustimmungen:
    1
    Kekse:
    1.930
    Erstellt: 26.11.04   #2
    1) Auf B
    2) Welches Solo meinst du, kenne nur das hier :

    Code:
    ----------------------------------|----------------------------------|
    ----------------------------------|----------------------------------|
    --9t2-9t2-9t2-9t2-9t2-9t2-9t2-9t2-|--9t2-7t2-7t2-7t2-7t2-4t2-4t2-4t2-|
    ----------------------------------|----------------------------------|
    ----------------------------------|----------------------------------|
    ----------------------------------|----------------------------------|
    
    
                                               
    ------------------------------------------|
    ------------------------------------------|
    ------------------------------------------|
    --10t3-10t3-10t3-10t3-10t3-10t3-10t3-10t3-|
    ------------------------------------------|
    ------------------------------------------|
    
    
                                                                                    
    ------------------------------------------||-----------------------------------|
    ------------------------------------------||-----------------------------------|
    ------------------------------------------||*--9t2-9t2-9t2-9t2-9t2-9t2-9t2-9t2-|
    --10t3-10t3-10t3-10t3-12t3-12t3-12t3-12t3-||*----------------------------------|
    ------------------------------------------||-----------------------------------|
    ------------------------------------------||-----------------------------------|
    
    
                                                                                  
    ----------------------------------|------------------------------------------|
    ----------------------------------|------------------------------------------|
    --9t2-7t2-7t2-7t2-7t2-4t2-4t2-4t2-|------------------------------------------|
    ----------------------------------|--10t3-10t3-10t3-10t3-10t3-10t3-10t3-10t3-|
    ----------------------------------|------------------------------------------|
    ----------------------------------|------------------------------------------|
    
    
                                                 
    -------------------------------------------||
    -------------------------------------------||
    ------------------------------------------*||
    --10t3-10t3-10t3-10t3-12t3-12t3-12t3-12t3-*||
    -------------------------------------------||
    -------------------------------------------||
     
  3. Crusher

    Crusher Mod Emeritus Ex-Moderator

    Im Board seit:
    18.08.03
    Zuletzt hier:
    6.03.16
    Beiträge:
    1.814
    Ort:
    Deutschland
    Zustimmungen:
    1
    Kekse:
    90
    Erstellt: 26.11.04   #3
    @Silent Scream: Das solo kommt nach dem tapping part bei 3:50 oder so.

    Zu Nummer 3: Klingt mir sehr nach mehreren Anschlägen.
     
  4. 101010-fender

    101010-fender Registrierter Benutzer

    Im Board seit:
    20.08.03
    Zuletzt hier:
    2.10.12
    Beiträge:
    1.576
    Zustimmungen:
    1
    Kekse:
    1.930
    Erstellt: 26.11.04   #4
    Code:
    |------------------------|-------------------------|
    |------------------------|-------------------------|
    |--9~-------9--7---------|-----------7~------------|
    |-----------------10--9--|----9--10-------10--9----|
    |------------------------|-------------------------|
    |------------------------|-------------------------|
    
    
                                                                                  
    -------------------|--------------------------|------------------------------|
    -------------------|--------------------------|----------------10r-----------|
    -------------------|--------------------------|-----12--9--12--------12--12--|
    --9~---------------|--9--10----10--9----7-----|--9---------------------------|
    -------------------|-----------------------7--|------------------------------|
    -------------------|--------------------------|------------------------------|
    
    
                                                                   
    -------------------------------|------------------------------|
    ---------10----12-13-12--------|----------------10~-------10--|
    -----12------------------12~---|-----12-----12--------12------|
    --9----------------------------|--9------9--------------------|
    -------------------------------|------------------------------|
    -------------------------------|------------------------------|
    
    
                                                                   
    ----------------------------|---------------------------------|
    ----12~-12~---12--13--12~---|--17~-----17--15-17-15-----------|
    ----------------------------|-------------------------17--16~-|
    ----------------------------|---------------------------------|
    ----------------------------|---------------------------------|
    ----------------------------|---------------------------------|
    
    
                                                                                   
    ----------------------------|--------------------|----------------------------|
    ------------15~-------------|--19~---------------|--19--20~---20~-19~---------|
    ----16--17--------16--17~---|--------------------|----------------------19/---|
    ----------------------------|--------------------|----------------------------|
    ----------------------------|--------------------|----------------------------|
    ----------------------------|--------------------|----------------------------|
    
    
                                                                          
    --12------12--15------15--14------|--12------12--15------15--14------|
    ------12----------12----------12--|------12----------12----------12--|
    ----------------------------------|----------------------------------|
    ----------------------------------|----------------------------------|
    ----------------------------------|----------------------------------|
    ----------------------------------|----------------------------------|
    
    
                                                                      
    --17------17--20------20--19------|--17------17--20--19~---19~---|
    ------17----------17----------17--|------17----------------------|
    ----------------------------------|------------------------------|
    ----------------------------------|------------------------------|
    ----------------------------------|------------------------------|
    ----------------------------------|------------------------------|
    Dann ist es das :cool:
     
  5. InfectedSoul

    InfectedSoul Threadersteller Registrierter Benutzer

    Im Board seit:
    26.11.04
    Zuletzt hier:
    11.12.04
    Beiträge:
    8
    Ort:
    Nahe Freiburg
    Zustimmungen:
    0
    Kekse:
    10
    Erstellt: 27.11.04   #5
    Erst ma vielen Dank für eure Antworten, ging ja wirklich flott ^^
    Jetzt muss ich mal gucken, ob es so funktioniert, wenn nicht meld ich mich wieder *murharhar*

    Mfg Farmer

    --> Habs nun getestet und alles klappt einwandfrei, jetzt kann ich das Lied endlich komplett spielen und unsre Schule schocken... :rock:Nochmals vielen Dank!!!
     
  6. cannibal corpse

    cannibal corpse Registrierter Benutzer

    Im Board seit:
    17.11.04
    Zuletzt hier:
    3.03.06
    Beiträge:
    119
    Zustimmungen:
    0
    Kekse:
    14
    Erstellt: 23.12.04   #6
    was wolltn ihr mit tabbs ladet euch guitar pro im netz da geniales programm da kann mer sich des zeug auch anhören und zu deiner frage wie die stimmen du hast doch ne gitarre stimm halt auf B und C und schau auf was die stimmen und die antwort is die stimmen auf B!!!
     
Die Seite wird geladen...

mapping