ASP - Ich will brennen Tabs

von Ich will brennen, 10.08.06.

  1. Ich will brennen

    Ich will brennen Registrierter Benutzer

    Im Board seit:
    10.08.06
    Zuletzt hier:
    13.08.06
    Beiträge:
    1
    Zustimmungen:
    0
    Kekse:
    10
    Erstellt: 10.08.06   #1
    Hey leute, ich suche die Gitarren tabs von ASP - Ich will brenne, aber ich finde überhaupt nichts, wäre toll wenn mir jemand da hilf, danke^^
     
  2. Maura

    Maura Registrierter Benutzer

    Im Board seit:
    01.08.06
    Zuletzt hier:
    13.06.15
    Beiträge:
    26
    Ort:
    Hannover
    Zustimmungen:
    0
    Kekse:
    10
    Erstellt: 16.08.06   #2
    ich schließe mich der suche an
     
  3. xgoingunder

    xgoingunder Registrierter Benutzer

    Im Board seit:
    10.09.05
    Zuletzt hier:
    8.04.12
    Beiträge:
    223
    Ort:
    Berlin
    Zustimmungen:
    0
    Kekse:
    10
    Erstellt: 16.08.06   #3
    Naja, ich weiß wie es gespielt würd, da ich selber mal auf der suche war, und glaubt mir wenn ich nich was übersehen hab isse vergebens... und dabei find ich sonst fast alles im Netz! ^^
    Wenn ihr so ein Interesse dran habt könnt ich nen Tab machen, dauert aber da ich soweis nur mache wenn ich Zeit und Lust hab, also könnte es sein das ihr euch da schon noch ne Woche oder so gedulden könnt.
     
  4. simia

    simia Registrierter Benutzer

    Im Board seit:
    30.01.05
    Zuletzt hier:
    21.10.11
    Beiträge:
    53
    Zustimmungen:
    0
    Kekse:
    10
    Erstellt: 18.08.06   #4
    Spur 1
    E E E E E E E E E E E E E E E E
    E||--------------------------|--------------------------|
    B||--------------------------|--------------------------|
    G||--------------------------|--------------------------|
    D||-----------1--3--1--------|--------3--4--6--4--3-----|
    A||--1--1--4-----------4--1--|--4--4-----------------4--|
    E||--------------------------|--------------------------|


    E E E E E E E E E E E E E E E E
    --------------------------|--------------------------|-----||
    --------------------------|--------------------------|-----||
    --------------------------|--------------------------|-----||
    --------------------------|--------------------------|-----||
    --------3--4--6--4--3-----|--------1--2--4--2--1-----|-----||
    --4--4-----------------4--|--2--2-----------------2--|-----||



    so ganz grob
     
  5. White Weasel

    White Weasel Registrierter Benutzer

    Im Board seit:
    13.01.08
    Zuletzt hier:
    23.08.10
    Beiträge:
    4
    Ort:
    Weyhe bei Bremen
    Zustimmungen:
    0
    Kekse:
    10
    Erstellt: 16.01.08   #5
    ich find das klingt schon verdammt gut danach ;D
     
  6. Schwarze Seele

    Schwarze Seele Registrierter Benutzer

    Im Board seit:
    04.02.09
    Zuletzt hier:
    4.02.09
    Beiträge:
    1
    Zustimmungen:
    0
    Kekse:
    10
    Erstellt: 04.02.09   #6
    unter www.ultimate-guitar.com findet man diese Tabs.
    Ich suche allerdings die Tabs von ASP - Nie mehr... Die sind da leider nicht.
    Kann mir da jemand helfen??
     
Die Seite wird geladen...

mapping