Bad Boys Running Wild (scorpions) Intro

von Gene Simmons, 18.03.06.

  1. Gene Simmons

    Gene Simmons Registrierter Benutzer

    Im Board seit:
    27.02.06
    Zuletzt hier:
    16.04.08
    Beiträge:
    44
    Zustimmungen:
    0
    Kekse:
    10
    Erstellt: 18.03.06   #1
    Hallo

    hat von euch jemand das Intro das Matthias Jabs bei Bad Boys Running Wild spielt???


    Ich finde es nirgendwo in den Tabsseiten.

    Danke
     
  2. Andreas Gerhard

    Andreas Gerhard Registrierter Benutzer

    Im Board seit:
    04.03.05
    Zuletzt hier:
    8.07.16
    Beiträge:
    1.086
    Ort:
    Goldbach
    Zustimmungen:
    6
    Kekse:
    621
    Erstellt: 18.03.06   #2
    leider nein, habe auch schon danach gesucht und tabben kann ich das auch nicht :/

    nicht mal wenn ich mirs nur auf 50% anhöre :(
     
  3. AndreasW

    AndreasW Registrierter Benutzer

    Im Board seit:
    16.05.05
    Zuletzt hier:
    8.10.14
    Beiträge:
    1.469
    Ort:
    Hamburg
    Zustimmungen:
    4
    Kekse:
    2.972
    Erstellt: 19.03.06   #3
    Meinst du dieses Intro?
    Ist aus einem GuitarPro File kopiert:
    Code:
                        Bad Boys Running Wild (WWLive Version)                      
    
    
    Matthias Jabs 2
         W                   W                 
    E||-------------------|-------------------|
    B||-------------------|-------------------|
    G||-------------------|-------------------|
    D||-------------------|-------------------|
    A||-------------------|-------------------|
    E||-------------------|-------------------|
    
    
                                                                               5    
       T  T  T  T  T  T  T  T  T  T  T  T  T  T T T T  T T T T T T T T T T T T X T T
    --11-11----11-10--9--8--7--7--6--7--6--5--0-0---0-------------------------------
    -----15-15-14-13-10-11-11-11-11-10--9--7--9-7-6-0--0-0-0-2-0--------------------
    --------18-17-13-13-14-13-14-14-13-11-10-10-8-8----8-6-4-3-1-3-1----------------
    ----------------------------------------------8-8-11-8-8-6-4-4-3-4-3-1---1------
    -------------------------------------------------------------8-2-4-6-4-4-2-1-4-1
    -----------------------------------------------------------------7-9-7-6--------
    
    
      5                     5    5                      5                      
      X E  E  Q    Q    E.  S    X E  E  Q    E  E  E.  S    W                 
    --------------------------|---------------------------|-------------------|
    --------------------------|---------------------------|-------------------|
    --------------------------|---------------------------|-------------------|
    ----1--4-------4----------|----1--4-------1--4--------|-------------------|
    ----------1---------2---L-|--L-------1----------------|-------------------|
    --------------------------|---------------------------|-------------------|
    
    Geht irgendwie garnicht....:D


    Andreas
     
  4. Stefan Hetfield

    Stefan Hetfield Registrierter Benutzer

    Im Board seit:
    22.01.06
    Zuletzt hier:
    2.05.12
    Beiträge:
    375
    Ort:
    Langen
    Zustimmungen:
    0
    Kekse:
    291
    Erstellt: 19.03.06   #4
    Aha, wir das gehen soll ist mir ein Rätsel, worauf hin ich mich eben totlachte. ;)

    Du sagst es einfach nur treffend. Das geht gar nicht irgendwie. ;)
     
Die Seite wird geladen...

mapping