Beatsteak Fans gesucht!

von Etamenki, 27.04.07.

  1. Etamenki

    Etamenki Registrierter Benutzer

    Im Board seit:
    15.04.07
    Zuletzt hier:
    29.08.09
    Beiträge:
    11
    Ort:
    Köln
    Zustimmungen:
    0
    Kekse:
    10
    Erstellt: 27.04.07   #1
    Hallo Freunde,

    ich suche den Tab zu dem Lied von "Atomic Love" hat den jemand? Wenns geht Guitar Pro Tab aber so würde auch gehen.

    Liebe Grüße Eta
     
  2. Ryknow

    Ryknow Registrierter Benutzer

    Im Board seit:
    18.01.06
    Zuletzt hier:
    18.08.15
    Beiträge:
    4.640
    Ort:
    Zuhause
    Zustimmungen:
    730
    Kekse:
    10.700
    Erstellt: 28.04.07   #2
    Wenn du das ehrlich meinst, dann renn ich lachend in eine Kreissäge....das Lied hat vielleicht 6 verschiedene Griffe *nur mal eben kurz reingehört*

    Ich tabs dir morgen früh, sobald ich Sandy ausm Proberaum geholt hab
     
  3. AndiFS

    AndiFS Registrierter Benutzer

    Im Board seit:
    15.01.06
    Zuletzt hier:
    19.09.16
    Beiträge:
    338
    Ort:
    MG
    Zustimmungen:
    3
    Kekse:
    338
    Erstellt: 28.04.07   #3
    Du nennst ihn "Sandy"???

    :D
     
  4. Dexe

    Dexe Registrierter Benutzer

    Im Board seit:
    02.03.05
    Zuletzt hier:
    17.07.16
    Beiträge:
    439
    Ort:
    Delmenhorst
    Zustimmungen:
    0
    Kekse:
    177
    Erstellt: 28.04.07   #4
    Vermutlich weil es ein Sandberg ist oder? :rolleyes:
     
  5. Stocky

    Stocky Registrierter Benutzer

    Im Board seit:
    27.06.06
    Zuletzt hier:
    18.10.16
    Beiträge:
    742
    Ort:
    NRW
    Zustimmungen:
    33
    Kekse:
    1.309
    Erstellt: 29.04.07   #5
    Oder er tierisch auf ihn/sie steht :D
     
  6. tobmän

    tobmän Registrierter Benutzer

    Im Board seit:
    26.05.06
    Zuletzt hier:
    27.08.14
    Beiträge:
    117
    Ort:
    Helmstedt
    Zustimmungen:
    1
    Kekse:
    30
    Erstellt: 29.04.07   #6
    Warum denn nicht? Meiner heisst "Murphy" :cool:
     
  7. Ryknow

    Ryknow Registrierter Benutzer

    Im Board seit:
    18.01.06
    Zuletzt hier:
    18.08.15
    Beiträge:
    4.640
    Ort:
    Zuhause
    Zustimmungen:
    730
    Kekse:
    10.700
    Erstellt: 29.04.07   #7
    Sandy ist halt mein Sandberg....hat meine Freundin so getauft als sie noch eifersüchtig auf den Bass war "Sandy liebst du mehr als ich oder? "

    so...hier die 4 Riffs die ich rausgehört habe....zusammenbasteln kannst du dir die selber ;)


    Beatsteaks - Atomic Love

    1
    Gb------------------------------------------------------------
    Db------------------------------------------------------------
    Ab2-2-2-2-2-2-2-6-6-6-6-6-6-6---------------------------------
    Eb----------------------------4-4-4-4-4-4-4-4-4-4-4-4-4-4-4-4-

    2
    Gb-------------------------------------------------------------------
    Db-------------------------------------------------------------------
    Ab-----------------------------------4-4-4-4-4-4-4-4-7-7-7-7-7-7-7-7-
    Eb-2-2-2-2-2-2-2-2-4-4-4-4-4-4-4-4-4---------------------------------

    3
    Gb-------------------------------------------------------
    Db-------------------------------------------------------
    Ab-2-2-2-2-2-2-2-2-2-------------------------------------
    Eb-------------------2-2-2-2-2-2-2-2-4-4-4-4-4-4-4-4-4-4-

    4
    Gb-----------------------------------
    Db-----------------------------------
    Ab-----------------------------------
    Eb-0-0-0-0-0-0-0-0-4-4-4-4-4-4-4-4-4-
     
Die Seite wird geladen...

mapping