beatsteaks - demons galore

von flogr, 22.04.07.

  1. flogr

    flogr Registrierter Benutzer

    Im Board seit:
    26.12.06
    Zuletzt hier:
    5.09.10
    Beiträge:
    38
    Ort:
    Baden
    Zustimmungen:
    0
    Kekse:
    10
    Erstellt: 22.04.07   #1
    hey ho,
    ich wollte fragen ob jemand von euch die tabs zu demons galore (nur des solo würde auch reichen^^) hat. hab schon gesucht aber nix gefunden.
    gruß flo
     
  2. Der_Astronaut

    Der_Astronaut Registrierter Benutzer

    Im Board seit:
    05.06.07
    Zuletzt hier:
    19.09.12
    Beiträge:
    199
    Zustimmungen:
    0
    Kekse:
    117
    Erstellt: 02.12.07   #2
    *Thread ausgrab*

    Tja, selbe Frage. Hat jemand Tabs ( nach Möglichkeit Guitar Pro ) für Demons Galore von den Beatsteaks?
     
  3. flogr

    flogr Threadersteller Registrierter Benutzer

    Im Board seit:
    26.12.06
    Zuletzt hier:
    5.09.10
    Beiträge:
    38
    Ort:
    Baden
    Zustimmungen:
    0
    Kekse:
    10
    Erstellt: 24.12.07   #3
    juhuu ich bin nicht allein ;-)
    hab in der zwischenzeit nochmal gesucht aber bisher nix gefunden... wenn jemand was hat würd ich mich sehr freuen :-)
     
  4. rockmyworld

    rockmyworld Registrierter Benutzer

    Im Board seit:
    04.01.06
    Zuletzt hier:
    16.02.10
    Beiträge:
    47
    Zustimmungen:
    0
    Kekse:
    10
    Erstellt: 24.12.07   #4
    Hier mal n Vorschlag was ich so raushöre, kA ob das richtig ist, is nur n tipp ;-)
    Intro
    e|----------------------------------------------------------------------------------------|
    B|----------------------------------------------------------------------------------------|
    G|-------------------------------------8------------------------8---8-8-8--8-8-8-8----|
    D|-8-----5-------6---5---3---5------------6----5---3---5------------------------------|
    A|----------------------------------------------------------------------------------------|
    E|----------------------------------------------------------------------------------------|
    akkorde für den vers ................chorus
    e|------------------------------------------------------------------------------------------|
    B|------------------------------------------------------------------------------------------|
    G|---5--8--3-----------------------17--15-------------------------17-15----------------|
    D|---5--8--3--------------------------------15--15--17--13--------------15-15-17-18-|
    A|---3--6--1------------------------------------------------------------------------------|
    E|------------------------------------------------------------------------------------------|
     
  5. flogr

    flogr Threadersteller Registrierter Benutzer

    Im Board seit:
    26.12.06
    Zuletzt hier:
    5.09.10
    Beiträge:
    38
    Ort:
    Baden
    Zustimmungen:
    0
    Kekse:
    10
    Erstellt: 25.12.07   #5
    hey ho!!!
    viiieelen dank is echt super :-) habs gleich ausprobiert un ich find dass es ziemlich gut passt ;-)

    frohe feiertage noch :-)
     
Die Seite wird geladen...

mapping