Beste Solo Licks

von fender_rulez12, 01.02.05.

  1. fender_rulez12

    fender_rulez12 Registrierter Benutzer

    Im Board seit:
    12.12.04
    Zuletzt hier:
    3.08.10
    Beiträge:
    207
    Ort:
    Gunskirchen bei Wels AUT
    Zustimmungen:
    1
    Kekse:
    219
    Erstellt: 01.02.05   #1
    Hallo!

    Ich hab mir gedacht, sowas gibts noch nicht.

    Regeln für den Thread: Jedes soll hier sein Lieblings-Solo-Lick reinposten. Es sollte kein ganzes Solo sein sondern einfach nur ein paar Takte.

    Meines:
    Code:
    Cacophony - Concerto
     
    |--------13-18p13----------13-14p13----|------14----------16-14-13----------|
    |-----14----------14----14----------16-|14-16----16-14-13----------16-14-13-|
    |*-15----------------15----------------|------------------------------------|
    |*-------------------------------------|------------------------------------|
    |--------------------------------------|------------------------------------|
    |--------------------------------------|------------------------------------|
     
    x3
    |-------13-18p13----------13-14p13----|------14----------18-16-14-----------|
    |----14----------14----14----------16-|14-16----16-14-13----------18-16-14--|
    |-15----------------15----------------|------------------------------------*|
    |-------------------------------------|------------------------------------*|
    |-------------------------------------|-------------------------------------|
    |-------------------------------------|-------------------------------------|
    
    MFG
    Fenda
     
  2. Tails

    Tails Registrierter Benutzer

    Im Board seit:
    14.08.04
    Zuletzt hier:
    13.09.11
    Beiträge:
    62
    Ort:
    München
    Zustimmungen:
    0
    Kekse:
    30
    Erstellt: 02.02.05   #2
    Dürfen wir auch unserer eigenen oder nur die von anderen?

    Satriani- Mind Storm

    ----------------------16-20-16-------------------
    ------------------17------------17---------------
    ---------------18-------------------------------- 4X
    ------------18-----------------------------------
    --16----16--------------------------------------
    -------------------------------------------------
     
  3. fender_rulez12

    fender_rulez12 Threadersteller Registrierter Benutzer

    Im Board seit:
    12.12.04
    Zuletzt hier:
    3.08.10
    Beiträge:
    207
    Ort:
    Gunskirchen bei Wels AUT
    Zustimmungen:
    1
    Kekse:
    219
    Erstellt: 02.02.05   #3
    du kannst alles schreiben was dir gefällt!!!

    Hier noch ein Lieblingslick von mir:
    Code:
    guns n' roses - sweet child o mine
     
    E:|-17^--hold----15--14--h15p14-----------15--14--h15p14-----------12--14-|
    B:|-----------------------------17-----------------------17-16------------|
    G:|-----------------------------------------------------------------------|
    D:|-----------------------------------------------------------------------|
    A:|-----------------------------------------------------------------------|
    E:|-----------------------------------------------------------------------| 
     
     
    E:|-----------------------------------------------------------------------|
    B:|--15^--12----------------------------------------13-12-------h13p12\10-|
    G:|----------14^--12--11h12----------------11-12-14-----------------------|
    D:|-----------------------------14-----14---------------------------------|
    A:|-----------------------------------------------------------------------|
    E:|-----------------------------------------------------------------------|
     
     
    E:|---------------------------------------------15^-----------------------|
    B:|--13^-----13-----12--12-(12)-------12^----------------7^^--------------|
    G:|-----------------------------------------14-----------------9--9-------|
    D:|-----------------------------------------------------------------------|
    A:|-----------------------------------------------------------------------|
    E:|-----------------------------------------------------------------------|
    
     
  4. LennyNero

    LennyNero HCA Gitarre: Racks & MIDI Ex-Moderator HCA

    Im Board seit:
    02.12.03
    Zuletzt hier:
    7.12.16
    Beiträge:
    17.525
    Ort:
    Wetzlar
    Zustimmungen:
    288
    Kekse:
    35.627
    Erstellt: 02.02.05   #4
    Ein kleiner Tipp fuer Tabs: damit sie in einer nicht proportionalen schrift gesetzt werden setzt sie einfach in Code: (code)(/code)... wobei anstelle der runden Klammern die eckigen klammern (Alt-Gr + 8 = [, Alt-Gr +9 = ] auf der PC Tastatur) zu verwenden sind:

    Code:
    |--------13-18p13----------13-14p13----|------14----------16-14-13----------|
    |-----14----------14----14----------16-|14-16----16-14-13----------16-14-13-|
    |*-15----------------15----------------|------------------------------------|
    |*-------------------------------------|------------------------------------|
    |--------------------------------------|------------------------------------|
    |--------------------------------------|------------------------------------|
    
                                                                               x3
    |-------13-18p13----------13-14p13----|------14----------18-16-14-----------|
    |----14----------14----14----------16-|14-16----16-14-13----------18-16-14--|
    |-15----------------15----------------|------------------------------------*|
    |-------------------------------------|------------------------------------*|
    |-------------------------------------|-------------------------------------|
    |-------------------------------------|-------------------------------------|
    
     
  5. A.P.

    A.P. Registrierter Benutzer

    Im Board seit:
    23.11.04
    Zuletzt hier:
    22.03.09
    Beiträge:
    969
    Ort:
    Ösiland
    Zustimmungen:
    2
    Kekse:
    205
    Erstellt: 02.02.05   #5
    is zwar ein ziemlich sinnloser thread , aber da mir grad fad is werd ich mich ein wenig beteiligen:

    anfang vom angel of death solo:
    eb:21b-21b-21-19h21p19----19-21b-21-19h21p19---------------------------------------|
    Bb:--------------------21--------------------21-18h20p18---------------------------|
    Gb:------------------------------------------------------20-18h20p18---------------|
    Db:------------------------------------------------------------------20-18h20p18---|
    Ab:------------------------------------------------------------------------------20|
    Eb:--------------------------------------------------------------------------------|


    i hate you (slayer's version)
    full------------| full------------------|
    --------12-|--12-12--12-12--------17b-17-17-17---17--|-19b--19-19-19---------|
    -/12-15-15-|--15-15--15-15-15/20--20--20-20-20---20--|-22---22-22-22---------|
    -----------|-----------------------------------------|-----------------------|
    -----------|-----------------------------------------|-----------------------|
    -----------|-----------------------------------------|-----------------------|
    -----------|-----------------------------------------|-----------------------|

    full full full-------------|
    ----19-|-22b------17--20b-------14-|-17b17b17b-----|
    -22----|------/20----------/17-----|---------------|
    -------|---------------------------|---------------|
    -------|---------------------------|---------------|
    -------|---------------------------|---------------|
    -------|---------------------------|---------------|

     
Die Seite wird geladen...

mapping