Blood Brothers tab

von pottwalkaiser, 22.10.05.

  1. pottwalkaiser

    pottwalkaiser Registrierter Benutzer

    Im Board seit:
    22.10.05
    Zuletzt hier:
    11.08.11
    Beiträge:
    2
    Zustimmungen:
    0
    Kekse:
    10
    Erstellt: 22.10.05   #1
    Kann jemand mal bitte den RICHTIGEN tab von papa roach - blood brothers posten? hab schon ziemlich lange im inet gesucht und immer nur verschiedene tabs gefunden. deswegen möchte ich mal wissen welcher dem original am nächsten kommt.

    MfG Pottwalkaiser
     
  2. 36 cRaZyFiSt

    36 cRaZyFiSt Registrierter Benutzer

    Im Board seit:
    21.08.04
    Zuletzt hier:
    12.10.16
    Beiträge:
    5.978
    Ort:
    Regensburg
    Zustimmungen:
    123
    Kekse:
    5.448
    Erstellt: 22.10.05   #2
    http://www.ultimate-guitar.com/tabs/p/papa_roach/blood_brothers_ver2_tab.htm

    ich denk der stimmt

    wobei ich das Intro so spielen würd:
    ----------------------------------------------------
    ----------------------------------------------------
    7--7--10--7--9---------7--7--10--7--7----------7----
    ----------------10--7------------------10--10-----10
    ----------------------------------------------------
    ----------------------------------------------------

    ----------------------------------------------------
    ----------------------------------------------------
    7--7--10--7--9---------7--7--10--7--7---------------
    ----------------10--7------------------7--7--8--7---
    ----------------------------------------------------
    ----------------------------------------------------


    aber das bleibt sich ja gleich
     
  3. pottwalkaiser

    pottwalkaiser Threadersteller Registrierter Benutzer

    Im Board seit:
    22.10.05
    Zuletzt hier:
    11.08.11
    Beiträge:
    2
    Zustimmungen:
    0
    Kekse:
    10
    Erstellt: 24.10.05   #3
    dann sach ich mal danke: Danke :D
     
Die Seite wird geladen...

mapping