Boysetsfire - (10) And Counting

von *brown_eye, 25.03.06.

  1. *brown_eye

    *brown_eye Registrierter Benutzer

    Im Board seit:
    15.03.05
    Zuletzt hier:
    13.03.14
    Beiträge:
    16
    Ort:
    Hamburg
    Zustimmungen:
    0
    Kekse:
    10
    Erstellt: 25.03.06   #1
    Hat jemand die Akkorde oder Tabs von dem Lied?
    Am wichtigsten is der Akustikteil am Anfang.

    Danke schonma...
     
  2. intro

    intro Registrierter Benutzer

    Im Board seit:
    21.06.06
    Zuletzt hier:
    21.06.06
    Beiträge:
    1
    Zustimmungen:
    0
    Kekse:
    10
    Erstellt: 21.06.06   #2
    hier mein gitarrenlehrer hat die für mich rausgehört ist das intro und strophe..den rhytmus usw musste dann selber rausfinden ist nicht allzu schwer...viel spaß :)

    Intro/Strophe:

    Hb A/F F Hb
    E|--------------------------------------------------------|
    B|----3------1-----6---5----3---------------------------|
    G|----3------2-----5---3----3---------------------------|
    D|----3------3-----3---3----3---------------------------|
    A|----1------0-------------------------------------------|
    E|--------------------------------------------------------|


    Refrain:

    F E/F D C
    E|--------------------------------------------------------|
    B|-----------------3---3---3-------------------------------|
    G|---10----10----2---0---3-----------------------------|
    D|---10----10----0---2---3-----------------------------|
    A|--- 8------7---------3---1------------------------------|
    E|--------------------------------------------------------|
     
  3. *brown_eye

    *brown_eye Threadersteller Registrierter Benutzer

    Im Board seit:
    15.03.05
    Zuletzt hier:
    13.03.14
    Beiträge:
    16
    Ort:
    Hamburg
    Zustimmungen:
    0
    Kekse:
    10
    Erstellt: 23.06.06   #3
    ah...dankesehr:)
     
Die Seite wird geladen...

mapping