Brauche Anfängertabs

von Taifun, 20.05.06.

  1. Taifun

    Taifun Registrierter Benutzer

    Im Board seit:
    13.05.06
    Zuletzt hier:
    18.12.09
    Beiträge:
    42
    Ort:
    Bielefeld
    Zustimmungen:
    0
    Kekse:
    18
    Erstellt: 20.05.06   #1
    hiho Leutz^^
    brauch ma eure hilfe!!!!!:(
    Kann mir jemand leichte Tabs für den Anfang empfelen?
    Am besten welche, wo auch Bass tabs aufgefürt sind, weil mein kumpel mit seinem bass auch da is und wir mafürn anfang irgendwas leichtes zusammen zoggn wolln;)
    Danke schonmal im vorraus:D
     
  2. Taifun

    Taifun Threadersteller Registrierter Benutzer

    Im Board seit:
    13.05.06
    Zuletzt hier:
    18.12.09
    Beiträge:
    42
    Ort:
    Bielefeld
    Zustimmungen:
    0
    Kekse:
    18
    Erstellt: 20.05.06   #2
    Hiho leutz^^
    Ich brauch Anfängertabs die ich zusammen mit meinem kumpel n büschn zoggn kann;)
    Der zoggt bass und jetz wolltn wa ma was leichtes zusammenzoggn, was Gitarrentabs und Basstabs beinhlatet
    könnt ihr uns helfen?:(
    bidddddeeeeeeee;)
    danke schonma im vorraus:great:
     
  3. nookie

    nookie Registrierter Benutzer

    Im Board seit:
    25.07.05
    Zuletzt hier:
    1.01.16
    Beiträge:
    541
    Ort:
    Saarland
    Zustimmungen:
    4
    Kekse:
    368
    Erstellt: 20.05.06   #3
    Hier gibts ne bescheidene Auswahl an Songs

    Bass Tabs müsst ihr extra raussuchen oder ihr holt euch GuitarPro Tabs


    Ich kann euch persönlich noch Die For Your Government von Anti Flag empfehlen. Hab ich mit nem Kollegen als erstes gespielt, direkt nach dem er sich nen Bass gekauft hat.
     
  4. Abyss

    Abyss Registrierter Benutzer

    Im Board seit:
    09.05.05
    Beiträge:
    968
    Zustimmungen:
    12
    Kekse:
    2.446
    Erstellt: 20.05.06   #4
    also spontan fällt mir der Klassiker 'Californication' ein ...

    also die Gitarre:

    Code:
    
    e----------------------------     -------------------
    b---------0--1---------------     -------------------
    g----------------------------     -------0--2--------
    D------2---------------------     -------------------
    A---0------------------------     ----3--------------
    E----------------------------     -1-----------------
    
    
    und der Bass:

    Code:
    
    
    G---------9---9--7h9p7-10----     ----7---7--5-------  
    D---7------------------------     -------------------
    A----------------------------     -8-----------------
    E----------------------------     -------------------   
    
    
     
Die Seite wird geladen...

mapping