brauche hilfe beim tablesen :-)

von MtbR, 22.06.04.

  1. MtbR

    MtbR Registrierter Benutzer

    Im Board seit:
    22.06.04
    Zuletzt hier:
    22.06.04
    Beiträge:
    2
    Zustimmungen:
    0
    Kekse:
    10
    Erstellt: 22.06.04   #1
    erstmal hallo alle miteinander, freut mich bei euch mal was posten zu dürfen *schleim*!

    ich spiel grad von iron maiden fear of the dark und hab dazu auch ein super tab gefunden: http://www.ultimate-guitar.com/tabs/i/iron_maiden/fear_of_the_dark_ver4_tab.htm

    hört sich für mich soweit super an, aber jetzt bin ich beim solo und hab 1. noch nie sowas schnelles gespielt und 2. weiß ich auch nicht so recht wie man das tab lesen soll:

    D5
    e|-------------------10---------------------------------|
    B|-15-15-15------------12h11h10-----------------------|
    G|-14-14-14-10p12p10------------12h11h10h12h11h10---|
    D|------------------------------------------------------|
    A|------------------------------------------------------|
    E|------------------------------------------------------|
    und so weiter (siehe link)

    wie soll ich von einem niedrigeren auf einen höheren bund ein pull of zustande bringen (10p12) und von einem hohen auf einen niedriegeren bund hämmern (12h11h10)??

    schonmal besten dank und lg mark
     
  2. mad

    mad Registrierter Benutzer

    Im Board seit:
    24.08.03
    Zuletzt hier:
    23.05.11
    Beiträge:
    414
    Zustimmungen:
    0
    Kekse:
    10
    Erstellt: 22.06.04   #2
    gar nicht? der entwickler der tabulatur wird's verwechselt haben...
     
  3. Arahilion

    Arahilion Registrierter Benutzer

    Im Board seit:
    28.05.04
    Zuletzt hier:
    12.09.09
    Beiträge:
    238
    Ort:
    Freiburg
    Zustimmungen:
    1
    Kekse:
    22
    Erstellt: 22.06.04   #3
    lol, es geht gar nicht. Der Tabber hat sich da wohl n bißchen verschrieben.

    e|-------------------10---------------------------------|
    B|-15-15-15------------12p11p10-----------------------|
    G|-14-14-14-10h12p10------------12p11p10h12p11p10---|
    D|------------------------------------------------------|
    A|------------------------------------------------------|
    E|------------------------------------------------------|

    So müßte es richtig heißen.
     
  4. MtbR

    MtbR Threadersteller Registrierter Benutzer

    Im Board seit:
    22.06.04
    Zuletzt hier:
    22.06.04
    Beiträge:
    2
    Zustimmungen:
    0
    Kekse:
    10
    Erstellt: 22.06.04   #4
    habs mir auch schon gedacht, nur hab ich bis jetzt noch nie sowas gespielt und wusste nicht ob man so ein sau schnelles solo nur mit pulls und hämmering spielt oder jede note extra anschlägt :confused:
    jedenfalls danke erstmal, werds mal probiern und beurteilen ob es sich nach was anhört. lg
     
  5. Hans_3

    Hans_3 High Competence Award HCA

    Im Board seit:
    09.11.03
    Beiträge:
    16.150
    Zustimmungen:
    1.124
    Kekse:
    49.622
    Erstellt: 22.06.04   #5
    Auch der Anfang ist merkwürdig unökonomisch getabbt. Wird wohl eher so aussehen statt auf der B und G-Saite.


    e|-10-10-10------------|
    B|-10-10-10---------|
    G|------------|
     
Die Seite wird geladen...

mapping