brauche hilfe bzw tab!

von PreSSkoPP, 18.03.04.

  1. PreSSkoPP

    PreSSkoPP Registrierter Benutzer

    Im Board seit:
    09.09.03
    Zuletzt hier:
    20.03.08
    Beiträge:
    318
    Zustimmungen:
    3
    Kekse:
    66
    Erstellt: 18.03.04   #1
    hi,

    ich möchte unbeding folgenden song spielen, aber davon gibts keine tabs im internet, 100% nicht.
    jedoch kann ich ihn nicht selber tabben. wäre nett wenn mir einer helfen würde!
    hier ist der ausschnitt, den ich spielen will:

    http://home.arcor.de/**presskopp**/dubrauchstes.mp3

    rechtsklick/ziel speichern unter

    danke!
     
  2. Hans_3

    Hans_3 High Competence Award HCA

    Im Board seit:
    09.11.03
    Beiträge:
    16.151
    Zustimmungen:
    1.124
    Kekse:
    49.622
    Erstellt: 18.03.04   #2
    Akkorde: G C F (ohne Barree) Am G

    Die Wechseltöne auf den hohen Saiten sind sehr unsauber gespielt. Geht ungefähr so:

    ------3----------------
    ---3----3--------------
    -----------0---------
    --------------0-------0--0--2--2-------
    ---------------- 0/2----------------0--2----
    3-----------------------


    ------0----------------
    ---1----1--------------
    -----------0-----0/2--0--------
    --------------2------------2--0--0-
    3-----------------------
    -----------------------


    ------1-----1---3/1--------
    ---1-----1------------1----
    ---------------------------2----0
    3----------------------
    -----------------------
    -----------------------


    -------0---------------
    ---1------1------------
    --------------------
    2------------2----------
    -----------------------
    -----------------3------


    Nächstes Mal hörste so einfache Sachen aber selber raus :!: :p
     
  3. PreSSkoPP

    PreSSkoPP Threadersteller Registrierter Benutzer

    Im Board seit:
    09.09.03
    Zuletzt hier:
    20.03.08
    Beiträge:
    318
    Zustimmungen:
    3
    Kekse:
    66
    Erstellt: 18.03.04   #3
    ah danke!

    bin bei Am hängengeblieben, und mit den hohen tönen war ich auch ganz unsicher.
    danke nochmal!
     
Die Seite wird geladen...

mapping