Brauche Hilfe

von meerschwein, 06.10.04.

  1. meerschwein

    meerschwein Registrierter Benutzer

    Im Board seit:
    20.07.04
    Zuletzt hier:
    1.03.09
    Beiträge:
    71
    Ort:
    Tiengen
    Zustimmungen:
    0
    Kekse:
    10
    Erstellt: 06.10.04   #1
    -----------------------------

    ------0----------------------

    -----------------------------
    ...... 0
    -----------------------------
    0
    -----------------------------

    Ich bräuchte diese Noten eine Oktave höher als Basstabs. Kann mir jemand helfen?
     
  2. Icedealer

    Icedealer Registrierter Benutzer

    Im Board seit:
    11.03.04
    Zuletzt hier:
    9.03.08
    Beiträge:
    636
    Zustimmungen:
    0
    Kekse:
    60
    Erstellt: 06.10.04   #2
    -----------------------------

    ------0 (D) -----------------

    -----------------------------
    ...... 0 (A)
    -----------------------------
    0 (E)
    -----------------------------


    spielse dann auf dem bass die noten nen bissl höher (oktave)

    also

    G--------------
    D---------- 12-
    A------- 12----
    E -- 12--------
     
  3. strep-it-us

    strep-it-us Registrierter Benutzer

    Im Board seit:
    09.04.04
    Zuletzt hier:
    28.09.16
    Beiträge:
    830
    Ort:
    63801 Kleinostheim
    Zustimmungen:
    2
    Kekse:
    2.767
    Erstellt: 06.10.04   #3
    G------------------ -----------------
    D------------------ -----------------
    A------------------ ---7---12---17--
    E---12---17---22--- oder ------------
     
  4. Rubbl

    Rubbl Registrierter Benutzer

    Im Board seit:
    09.03.04
    Zuletzt hier:
    7.12.16
    Beiträge:
    3.895
    Ort:
    Geislingen/Steige
    Zustimmungen:
    434
    Kekse:
    10.779
    Erstellt: 06.10.04   #4
    täusche ich mich, oder sollen das notenlinien sein? es steht ja dran, von noten in tabs.
     
  5. meerschwein

    meerschwein Threadersteller Registrierter Benutzer

    Im Board seit:
    20.07.04
    Zuletzt hier:
    1.03.09
    Beiträge:
    71
    Ort:
    Tiengen
    Zustimmungen:
    0
    Kekse:
    10
    Erstellt: 06.10.04   #5
    jup sollten notenlinien sein.
    ich spiels jetzt

    G------------------
    D----------- ----12-
    A---12----15-------
    E-------------------
     
  6. Icedealer

    Icedealer Registrierter Benutzer

    Im Board seit:
    11.03.04
    Zuletzt hier:
    9.03.08
    Beiträge:
    636
    Zustimmungen:
    0
    Kekse:
    60
    Erstellt: 06.10.04   #6
    ahh. jezz versteh ich was die Punkte (.....) da bedeuten :rolleyes:

    na dann is da A ja nen B
     
Die Seite wird geladen...

mapping