Bullet for my valentine - The End - Tabs

von hansi_guitar, 01.11.05.

  1. hansi_guitar

    hansi_guitar Registrierter Benutzer

    Im Board seit:
    17.11.04
    Zuletzt hier:
    17.11.15
    Beiträge:
    862
    Ort:
    Bernbach bei Kaufbeuren (Allgäu)
    Zustimmungen:
    0
    Kekse:
    603
    Erstellt: 01.11.05   #1
    hi

    suche relativ dringend die tabs zu dem lied (siehe titel)

    hab schon die mir bekannten tabseiten abgesucht, und leider nix gefunden

    wär kool, wenn ihr mir helfen könntet


    gruß
    hansi_guitar
     
  2. hansi_guitar

    hansi_guitar Threadersteller Registrierter Benutzer

    Im Board seit:
    17.11.04
    Zuletzt hier:
    17.11.15
    Beiträge:
    862
    Ort:
    Bernbach bei Kaufbeuren (Allgäu)
    Zustimmungen:
    0
    Kekse:
    603
    Erstellt: 01.11.05   #2
    hmm hab schon mal angefangen mir das rauszuhören....

    könnt ihr mir sagen, ob ich das richtig gehört hab?

    tabs sind im anhang (ich weiß jetzt net wie man nen anhang beim edit ändern kann, aber bei der stelle wo ich h und p getabbt hab, da is nur der hammer on richtig.. der pullt nicht off.)

    gruß
    hansi_guitar
     

    Anhänge:

  3. Nuschel

    Nuschel Registrierter Benutzer

    Im Board seit:
    18.10.05
    Zuletzt hier:
    28.02.07
    Beiträge:
    62
    Ort:
    Stenal
    Zustimmungen:
    0
    Kekse:
    58
    Erstellt: 01.11.05   #3
  4. hansi_guitar

    hansi_guitar Threadersteller Registrierter Benutzer

    Im Board seit:
    17.11.04
    Zuletzt hier:
    17.11.15
    Beiträge:
    862
    Ort:
    Bernbach bei Kaufbeuren (Allgäu)
    Zustimmungen:
    0
    Kekse:
    603
    Erstellt: 02.11.05   #4
    kloar :D

    bin schon an der zweiten stimme dran zum raushören... wie gesagt bin ich im hören net so der held

    also wenn mein tab nicht stimmt, dann verbessert ihr mich bitte

    gruß
    hansi_guitar
     
  5. Nuschel

    Nuschel Registrierter Benutzer

    Im Board seit:
    18.10.05
    Zuletzt hier:
    28.02.07
    Beiträge:
    62
    Ort:
    Stenal
    Zustimmungen:
    0
    Kekse:
    58
    Erstellt: 02.11.05   #5
    Irgendwie finde ich die Abstände zwischen den Bünden bei dir viel zu weit.
    Vieleicht sind die Gitarren von Bullet for My Valentine tiefer gestimmt...oder so?
    Ich versuch ma was raus zu finden
     
  6. hansi_guitar

    hansi_guitar Threadersteller Registrierter Benutzer

    Im Board seit:
    17.11.04
    Zuletzt hier:
    17.11.15
    Beiträge:
    862
    Ort:
    Bernbach bei Kaufbeuren (Allgäu)
    Zustimmungen:
    0
    Kekse:
    603
    Erstellt: 02.11.05   #6
    du meinst das f#?

    das kannst ja auch ne okatve höher spielen... dann liegts richtig im fingersatz.

    auf der a-saite der 9te bund.

    aber ich meine gehört zu haben, das die das schon so tief spielen.. oder der bass legt halt immer den grundton. so könnt ich mirs auch erklären.

    aber ich stell grad fest, das das tab mit meiner gitarre geschrieben hab, die komplett nen halbton runtergestimmt is.

    also alles ein bund höherspielen, oder halt gitarre auch runterstimmen :rolleyes:

    gruß
    hansi_guitar
     
  7. Nuschel

    Nuschel Registrierter Benutzer

    Im Board seit:
    18.10.05
    Zuletzt hier:
    28.02.07
    Beiträge:
    62
    Ort:
    Stenal
    Zustimmungen:
    0
    Kekse:
    58
    Erstellt: 02.11.05   #7
    Ich habe meine Gitarre auf D normal gestimmt...
    als ich dann versucht habe mit zu spielen musste ich die dicke E-Seite noch einen Ton tiefer stimmen

    D5--------------------------------------------------------
    A4----------6-----------5-----------6--------------------
    F4----------------------------------------------usw.-----
    C4--------------0-----------0----------------------------
    G3------0----------0-----------0-------------------------
    C3--0-----------------------------------------------------

    versuch ma so ungefehr anzufangen...zumindest hab ich das so raus gehört
     
  8. SOAD Freak

    SOAD Freak Registrierter Benutzer

    Im Board seit:
    09.06.05
    Zuletzt hier:
    11.08.08
    Beiträge:
    288
    Ort:
    Bauernkaff
    Zustimmungen:
    0
    Kekse:
    37
    Erstellt: 22.12.05   #8
    Bullet for my valentine spielen dropC tuning...das heißt 2 tone runterstimmen und noch dropen...(da können die saiten schonmal ganz schön schlappern^^)...auch wenn ich des alles n bissl spät poste..aber ich probiers und schau das ich des intro hier reinlinken kann.
     
  9. Stoli

    Stoli Registrierter Benutzer

    Im Board seit:
    25.04.05
    Zuletzt hier:
    6.04.15
    Beiträge:
    1.351
    Ort:
    Amberg
    Zustimmungen:
    0
    Kekse:
    1.399
    Erstellt: 22.12.05   #9
    Ich hab mal irgendwo Tabs gefunden, weiss aber nicht mehr wo das war. Ich schau mal und poste es dann, wenn ichs find.
     
  10. SOAD Freak

    SOAD Freak Registrierter Benutzer

    Im Board seit:
    09.06.05
    Zuletzt hier:
    11.08.08
    Beiträge:
    288
    Ort:
    Bauernkaff
    Zustimmungen:
    0
    Kekse:
    37
    Erstellt: 22.12.05   #10
    Soooo ich hab mich mal hingesetzt und n bissl Mit da klampfe brobiert...und des is dabei rausgekommen..... viel spass beim proberien.

    MFG

    Soadfreak
     

    Anhänge:

  11. TimothyMcFadden

    TimothyMcFadden Registrierter Benutzer

    Im Board seit:
    03.12.04
    Zuletzt hier:
    6.04.14
    Beiträge:
    1.013
    Zustimmungen:
    0
    Kekse:
    16
    Erstellt: 22.12.05   #11
    Wär auch interressiert an den Tabs :) aber vllt gucke ich es mir einfach am 31.01.06 in der Live Music Hall ab :)
     
  12. SOAD Freak

    SOAD Freak Registrierter Benutzer

    Im Board seit:
    09.06.05
    Zuletzt hier:
    11.08.08
    Beiträge:
    288
    Ort:
    Bauernkaff
    Zustimmungen:
    0
    Kekse:
    37
    Erstellt: 22.12.05   #12
    ich geh auch aufs konzert in münchen backstage....
     
  13. hansi_guitar

    hansi_guitar Threadersteller Registrierter Benutzer

    Im Board seit:
    17.11.04
    Zuletzt hier:
    17.11.15
    Beiträge:
    862
    Ort:
    Bernbach bei Kaufbeuren (Allgäu)
    Zustimmungen:
    0
    Kekse:
    603
    Erstellt: 26.12.05   #13
    erst mal danke für die the end tabs soadfreak.. das lied is ja au geil, von dem her is das au scho hilfreich, aber eigentlich:

    loooooooool ich depp

    ich meinte ja gar net das the_end!!!!
    sondern das intro von dem album... das hat der mir der mir die mp3 geschickt hat bloß falsch beschriftet :screwy:

    drum stimmt das von mir au net! lol

    kann ein mod mal das thema ändern?
    also zu intro von The Poisen

    gruß
    hansi_guitar
     
  14. TimothyMcFadden

    TimothyMcFadden Registrierter Benutzer

    Im Board seit:
    03.12.04
    Zuletzt hier:
    6.04.14
    Beiträge:
    1.013
    Zustimmungen:
    0
    Kekse:
    16
    Erstellt: 26.12.05   #14
    Bullet For My Valentine
    Intro
    The Poison
    Tuning; CGCFAD


    Instrumental Track;

    Main Riff (Guitar setzt bei 0:43 ein) x4
    =========
    -------------------|
    -------------------|
    -------------7-5-7| x2
    ----8-7-8---------|
    -------------------|
    -5---------5------|

    --------------------------------------------|
    --------------------------------------------|
    -----3-2-3-----3-2-------3-2-3----3/5-3-|
    -------------------3------------------------|
    --------------------------------------------|
    -5/1---------1---------1--------1---------|

    (1:07)Gitarre 2 dann mit dem hier ein; (x2)

    -----------15-13-15------------15-13-15-|
    -15-13-15------------15-13-15-----------|
    ---------------------------------------------|
    ---------------------------------------------|
    ---------------------------------------------|
    ---------------------------------------------|

    -15-13-15--15-13-----15-13-15--15-15/17-13-|
    --------------------13------------------------------|
    -----------------------------------------------------|
    -----------------------------------------------------|
    -----------------------------------------------------|
    -----------------------------------------------------|

    Solo (1:31) (Gitarre 1/2 spielt den Main Riff x3)
    ====
    ------------------------------------------------------|
    -----10~---8-10-11--8-10-11---------------------|
    ---7-------------------------10--10-12-10-12~~\-| 2x
    -5--------------------------------------------------- |
    ------------------------------------------------------|
    ------------------------------------------------------|

    ---------------/22~~~//-|
    -/16----15//0------------|
    ---------------------------|
    ---------------------------|
    ---------------------------|
    ---------------------------|

    Outro
    =====
    ------------------------------------------------------------|
    ------------------------------------------------------------|
    -----------------------------------------5--------5--------|
    ---7-7h8-7----7-7h8--7----7-7h8-7----7-8-7----7-----|
    -------------------------------------------------------8-5-|
    -5----------5-----------5----------------------------------|

    ---------------------------------------------------------------|
    ---------------------------------------------------------------|
    -----------------------------------------5--------5-----------|
    ---7-7h8-7----7-7h8--7----7-7h8-7----7-8-7----7--------|
    -------------------------------------------------------8-5----|
    -5----------5-----------5---------------------------------0~ |


    Müsste eigentlich richtig sein hoffe es hilft :)
     
  15. TimothyMcFadden

    TimothyMcFadden Registrierter Benutzer

    Im Board seit:
    03.12.04
    Zuletzt hier:
    6.04.14
    Beiträge:
    1.013
    Zustimmungen:
    0
    Kekse:
    16
    Erstellt: 26.12.05   #15
    Bullet for my Valentine
    The End
    The Poison
    CGCFAD

    Intro
    3x 1x
    |-----------------------------------------------------------------------------|------------------------------------------------------------------------|
    |-----------------------------------------------------------------------------|------------------------------------------------------------------------|
    |---------10-------9--------10----------------10-------9-----------7------|--------10-----9--------10/12------------10-----9--------7----------|
    |--------------0-------0-----------------------------0-------0--------------|-------------0----0-----------------------------0-----0----------------|
    |----0--------------------0-------------0------------------------0----------|----0----------------0-----------------0-----------------0-------------|
    |-0---------------------------------0----------------------------------------|-0-----------------------------------0----------------------------------|


    Bridge

    Wenn das Schlagzeug einsetzt

    H
    |-----1----------|
    |-----3----------|
    |-----2----------|
    |-----0----------|
    |-----0----------|
    |-----0----------|

    Main Riff
    2x

    |--------------------------------------------------------------------------------------------------------------------|
    |--------------------------------------------------------------------------------------------------------------------|
    |---------10------9--------10--9------5--7--5-----------10-----9------10---9—10/12--------------------------|
    |--------------0-----0--------------0--------------------------0-----0---------------------------------------------|
    |-----0----------------0-------------------------------0-----------------0-----------------------------------------|
    |--0------------------------------------------------0---------------------------------------------------------------|

    |--------------------------------------------------------------------------------------------------------------------|
    |--------------------------------------------------------------------------------------------------------------------|
    |---------10------9--------10--9------5--7--5-----------10-----9/7---7-----------------------------------------|
    |--------------0-----0--------------0--------------------------0---------------------------------------------------|
    |-----0----------------0-------------------------------0------------------------------------------------------------|
    |--0------------------------------------------------0---------------------------------------------------------------|

    2.Gitarre

    beim dritten mal einsetzten 2x
    |--------------------------------------------------------------------------------------------------------------------|
    |--------------------------------------------------------------------------------------------------------------------|
    |-----------10~~~~~------------------10/12-9~~~~~---------------------------------------------------------|
    |--------------------------------------------------------------------------------------------------------------------|
    |--------------------------------------------------------------------------------------------------------------------|
    |--------------------------------------------------------------------------------------------------------------------|

    Bridge Chorus

    |--------------------------------------------------------------------------------------------------------------------|
    |--------------------------------------------------------------------------------------------------------------------|
    |--------10-10-10-10-10-10-10-10-12-12-12-9-9-9-9-9-9-9-9-9-9-9-14-14-14-14-14-14-14-14-14-------|
    |---------x-x-x-x-x-x-x-x-x-x-x-x-x-x-x-x-x-x-x-x-x-x-x-x-x-x-x-x-x-x-x-x-x-x-x-x-x-x-x-x-x-x-x-x-x-x-x-x---|
    |---------8--8---8---8--8--8—8—8-10-10-10-7-7-7-7-7-7-7-7-7-7-7--8--8---8---8---8--8---8--8---8------|
    |--------------------------------------------------------------------------------------------------------------------|





    |--------------------------------------------------------------------------------------------------------------------|
    |--------------------------------------------------------------------------------------------------------------------|
    |------14-14-14—7-7-7-7-7-7-7-7-7-7-7-7---------------------------------------------------------------------|
    |-------x---x---x--x-x-x-x-x-x-x-x-x-x-x-x------------------------------------------------------------------------|
    |------12-12-12--5-5-5-5-5-5-5-5-5-5-5-5----------------------------------------------------------------------|
    |--------------------------------------------------------------------------------------------------------------------|


    Main Riff
    1x

    |--------------------------------------------------------------------------------------------------------------------|
    |--------------------------------------------------------------------------------------------------------------------|
    |---------10------9--------10--9------5--7--5-----------10-----9------10---9—10/12--------------------------|
    |--------------0-----0--------------0--------------------------0-----0---------------------------------------------|
    |-----0----------------0-------------------------------0-----------------0-----------------------------------------|
    |--0------------------------------------------------0---------------------------------------------------------------|

    |--------------------------------------------------------------------------------------------------------------------|
    |--------------------------------------------------------------------------------------------------------------------|
    |---------10------9--------10--9------5--7--5-----------10-----9/7---7------------------------------------------|
    |--------------0-----0--------------0--------------------------0----------------------------------------------------|
    |-----0----------------0-------------------------------0------------------------------------------------------------|
    |--0------------------------------------------------0----------------------------------------------------------------|

    |--------------------------------------------------------------------------------------------------------------------|
    |--------------------------------------------------------------------------------------------------------------------|
    |--------------------------------------------------------------------------------------------------------------------|
    |--------000000000000-------------------------------------------------------------------------------------------|
    |--------000000000000-------------------------------------------------------------------------------------------|
    |--------000000000000-------------------------------------------------------------------------------------------|

    2x

    |--------------------------------------------------------------------------------------------------------------------|
    |--------------------------------------------------------------------------------------------------------------------|
    |---------10------9--------10--9------5--7--5-----------10-----9------10---9—10/12--------------------------|
    |--------------0-----0--------------0--------------------------0-----0---------------------------------------------|
    |-----0----------------0-------------------------------0-----------------0-----------------------------------------|
    |--0------------------------------------------------0---------------------------------------------------------------|

    |--------------------------------------------------------------------------------------------------------------------|
    |--------------------------------------------------------------------------------------------------------------------|
    |---------10------9--------10--9------5--7--5-----------10-----9/7---7-----------------------------------------|
    |--------------0-----0--------------0--------------------------0---------------------------------------------------|
    |-----0----------------0-------------------------------0-----------------------------------------------------------|
    |--0------------------------------------------------0---------------------------------------------------------------|


    2.Gitarre
    beim 2mal einsetzen
    |--------------------------------------------------------------------------------------------------------------------|
    |--------------------------------------------------------------------------------------------------------------------|
    |-----------10~~~~~------------------10/12-9~~~~~---------------------------------------------------------|
    |--------------------------------------------------------------------------------------------------------------------|
    |--------------------------------------------------------------------------------------------------------------------|
    |--------------------------------------------------------------------------------------------------------------------|

    Bridge Chorus

    |--------------------------------------------------------------------------------------------------------------------|
    |--------------------------------------------------------------------------------------------------------------------|
    |--------10-10-10-10-10-10-10-10-12-12-12-9-9-9-9-9-9-9-9-9-9-9-14-14-14-14-14-14-14-14-14-------|
    |---------x-x-x-x-x-x-x-x-x-x-x-x-x-x-x-x-x-x-x-x-x-x-x-x-x-x-x-x-x-x-x-x-x-x-x-x-x-x-x-x-x-x-x-x-x-x-x-x---|
    |---------8--8---8---8--8--8—8—8-10-10-10-7-7-7-7-7-7-7-7-7-7-7--8--8---8---8---8--8---8--8---8------|
    |--------------------------------------------------------------------------------------------------------------------|



    |--------------------------------------------------------------------------------------------------------------------|
    |--------------------------------------------------------------------------------------------------------------------|
    |------14-14-14—7-7-7-7-7-7-7-7-7-7-7-7---------------------------------------------------------------------|
    |------X--X--X---x-x-x-x-x-x-x-x-x-x-x-x-------------------------------------------------------------------------|
    |------12-12-12---5-5-5-5-5-5-5-5-5-5-5-5---------------------------------------------------------------------|
    |--------------------------------------------------------------------------------------------------------------------|


    Chorus kommt noch

    fürs erste mal raus hören garnicht mal soll schlecht 2 in einer Stunde :)

    Hoffe sie helfen euch!!
     
  16. hansi_guitar

    hansi_guitar Threadersteller Registrierter Benutzer

    Im Board seit:
    17.11.04
    Zuletzt hier:
    17.11.15
    Beiträge:
    862
    Ort:
    Bernbach bei Kaufbeuren (Allgäu)
    Zustimmungen:
    0
    Kekse:
    603
    Erstellt: 27.12.05   #16
    kool danke :)
     
  17. SOAD Freak

    SOAD Freak Registrierter Benutzer

    Im Board seit:
    09.06.05
    Zuletzt hier:
    11.08.08
    Beiträge:
    288
    Ort:
    Bauernkaff
    Zustimmungen:
    0
    Kekse:
    37
    Erstellt: 28.12.05   #17
    Hey du hast los mein Tab ausgebaut...frechheit:eek:
     
Die Seite wird geladen...

mapping