Bullwinkle Part 2

von ATK, 28.03.06.

  1. ATK

    ATK Registrierter Benutzer

    Im Board seit:
    02.10.05
    Zuletzt hier:
    4.06.09
    Beiträge:
    261
    Ort:
    N ü r n b e r g
    Zustimmungen:
    0
    Kekse:
    42
    Erstellt: 28.03.06   #1
    Key
    U=Up-Stroke
    D=Down-Stroke

    R=Let Ring For About 3 Seconds
    /=Slide
    Verse
    HE-----4-----4-----2-----4-----4-----2-----4---------------------------
    B------5-----5-----2-----5-----4-----2-----5---------------------------
    G------6-----6-----4-----6-----5-----4-----6--------------------------- Keep Repeating
    D------6-----6-----4-----6-----6-----4-----6---------------------------
    A------4-----4-----2-----4-----6-----2-----4---------------------------
    E------4-----4-----2-----4-----4-----2-----4---------------------------
    D D D U D D D
    R R R R R


    was heißt
    Stroke (git.) ?
     
  2. ATK

    ATK Threadersteller Registrierter Benutzer

    Im Board seit:
    02.10.05
    Zuletzt hier:
    4.06.09
    Beiträge:
    261
    Ort:
    N ü r n b e r g
    Zustimmungen:
    0
    Kekse:
    42
    Erstellt: 28.03.06   #2
    Bsp.: http://home.arcor.de/crawlis/08 The Centurians - Bullwinkle Part II2222222222.mp3



    Solo, Play After Verse Plays Twice
    HE---------------------------------------------------------------------------------------
    B----------------------------------------------------------------------------------------
    G------------------------------------------------------------------9---------------------
    D----------------------------------------------------------------------------------------
    A----------9--11--9-----------------------------------9--9--9--11------11--9---------9---
    E---9--12---------- --12--9--7--9---7--9--7--7--9/12------------------------12--9--9---12


    Solo (Continued)
    HE------------------------------------------------------------------
    B-------------------------------------------------------------------
    G-------------------------------------------------------------------
    D-------------------------------------------------------------------
    A------------9--11--11--11--9--9--9--9------------------------------
    E--9--12---------------------------------------12--9--7--4----------


    das stimmt doch nicht überein.
    kann es einer richtig tabben ?
     
  3. ATK

    ATK Threadersteller Registrierter Benutzer

    Im Board seit:
    02.10.05
    Zuletzt hier:
    4.06.09
    Beiträge:
    261
    Ort:
    N ü r n b e r g
    Zustimmungen:
    0
    Kekse:
    42
    Erstellt: 01.04.06   #3
  4. ATK

    ATK Threadersteller Registrierter Benutzer

    Im Board seit:
    02.10.05
    Zuletzt hier:
    4.06.09
    Beiträge:
    261
    Ort:
    N ü r n b e r g
    Zustimmungen:
    0
    Kekse:
    42
    Erstellt: 04.04.06   #4
    yuhu..........leute
     
  5. Stifflers_mom

    Stifflers_mom Registrierter Benutzer

    Im Board seit:
    19.08.03
    Zuletzt hier:
    30.10.16
    Beiträge:
    1.576
    Ort:
    Erlangen
    Zustimmungen:
    10
    Kekse:
    1.032
    Erstellt: 05.04.06   #5


    "Stroke" bedeutet auf die Gitarre bezogen ja der Anschlag, also Up-Stroke heißt Aufschlag und Down-Stroke Abschlag.
     
Die Seite wird geladen...

mapping