C Dropped-Tuning Gehversuche

von Clawhammer, 03.03.08.

  1. Clawhammer

    Clawhammer Registrierter Benutzer

    Im Board seit:
    15.03.07
    Zuletzt hier:
    8.09.09
    Beiträge:
    3
    Zustimmungen:
    0
    Kekse:
    10
    Erstellt: 03.03.08   #1
    Hallo zusammen,
    ich hab beschlossen mich ein bisschen in die Thematik C Dropped-Tuning einzuarbeiten. Ich schreib ganz gern zum Spaß ein bisschen Gittarren-Riffs oder überleg mir mit meiner Band solche Sachen. Das ist für mich aber nicht ganz leicht, da ich eigentlich Schlagzeuger bin und nicht sooo der tolle Gitarrist. Jedenfalls hab ich gestern mal etwas C gedropptes geschrieben (so nach Gehör) und jetzt würd ich gerne mal wissen wie sich das Ganze anhört. Ich hab auch keine Ahnung was das eigentlich für eine Tonart ist und vllt passt das ganze nach den Regeln der Musiktheorie garnicht zusammen, deshalb hab ich gedacht, frag ich mal hier, was ihr mir dazu sagen könnt.

    Da bin ich jetzt mal gespannt, ich freue mich auf eure Antworten!

    PS: hier hab ich das ganze auch noch mal als Tabs:

    Code:
    Guitar 1 C-Dropped
          E  E  E  S S E  E  E  E     E  E  E  E  E  E  E  E   
    D||----------------------------|--------------------------|
    A||----------------------------|--------------------------|
    F||*-----2------------5-----2--|--L--3-----2--L--5-----2--|
    C||*--2-----3--2-2-3-----3-----|--------2-----------3-----|
    G||----------------------------|--------------------------|
    C||----------------------------|--------------------------|
    
    
      E  E  E  S S E  E  E  E     E  E  E  E  E  E  E  E   4x
    ---------------------------|---------------------------||
    ---------------------------|---------------------------||
    -----2------------5-----2--|--L--3-----2--2--5-----2--*||
    --2-----3--2-2-3-----3-----|--------2-----------3-----*||
    ---------------------------|---------------------------||
    ---------------------------|---------------------------||
    
    Guitar 2 C-Dropped
          E  E  E  E  E  E  E  E     E  E  E  E  E  E  E  E   
    D||---------------------------|--------------------------|
    A||---------------------------|--------------------------|
    F||*--------------------------|--0--0--0--0--3--3--3--3--|
    C||*--0--0--0--0--3--3--3--3--|--0--0--0--0--3--3--3--3--|
    G||---0--0--0--0--3--3--3--3--|--0--0--0--0--3--3--3--3--|
    C||---0--0--0--0--3--3--3--3--|--------------------------|
    
    
      E  E  E  E  E  E  E  E     E  E  E  E  E  E  E  E   4x
    --------------------------|---------------------------||
    --------------------------|---------------------------||
    --------------------------|--0--0--0--0--3--3--3--3--*||
    --0--0--0--0--3--3--3--3--|--0--0--0--0--3--3--3--3--*||
    --0--0--0--0--3--3--3--3--|--0--0--0--0--3--3--3--3---||
    --0--0--0--0--3--3--3--3--|---------------------------||
    
     

    Anhänge:

  2. DenniZ_10000

    DenniZ_10000 Registrierter Benutzer

    Im Board seit:
    12.01.06
    Zuletzt hier:
    29.08.14
    Beiträge:
    1.339
    Ort:
    Hamburg
    Zustimmungen:
    4
    Kekse:
    1.441
    Erstellt: 03.03.08   #2
    Also erstmal wolltest du in Takt 2 bzw. 4 wohl Powerakkorde bilden, allerdings musst du die so greifen, wie in der Datei die anhängt. Außerdem würde ich in die Begleitung etwas mehr Variationen rein bringen. Hab mal eine kleine Sache geändert.
     

    Anhänge:

Die Seite wird geladen...

mapping