country roads

von luiggi1102, 05.10.05.

  1. luiggi1102

    luiggi1102 Registrierter Benutzer

    Im Board seit:
    28.09.05
    Zuletzt hier:
    11.10.05
    Beiträge:
    2
    Zustimmungen:
    0
    Kekse:
    10
    Erstellt: 05.10.05   #1
    suche die Einleitung zu diesem Stück wer kann mir helfen?
     
  2. strichmannl

    strichmannl Registrierter Benutzer

    Im Board seit:
    31.10.04
    Zuletzt hier:
    21.04.13
    Beiträge:
    349
    Ort:
    Ilmenau
    Zustimmungen:
    0
    Kekse:
    23
    Erstellt: 05.10.05   #2
  3. RAGMAN

    RAGMAN Mod Emeritus - Gitarren Ex-Moderator

    Im Board seit:
    19.08.03
    Zuletzt hier:
    31.08.13
    Beiträge:
    5.410
    Ort:
    zu Hause...
    Zustimmungen:
    12
    Kekse:
    2.538
    Erstellt: 05.10.05   #3
    das ist aber die Cover Version von "Me First and the Gimme Gimmes" die mit dem original Intro nix zutun hat.
     
  4. strichmannl

    strichmannl Registrierter Benutzer

    Im Board seit:
    31.10.04
    Zuletzt hier:
    21.04.13
    Beiträge:
    349
    Ort:
    Ilmenau
    Zustimmungen:
    0
    Kekse:
    23
    Erstellt: 05.10.05   #4
  5. Equi

    Equi Registrierter Benutzer

    Im Board seit:
    15.03.05
    Zuletzt hier:
    17.10.12
    Beiträge:
    54
    Zustimmungen:
    0
    Kekse:
    66
    Erstellt: 05.10.05   #5
    für tabs ist generell www.911tabs.com gut. quasi ne suchmaschine nur für tabs (zu metallica fondet der zB über 15 000 tabs :D )
     
  6. AndreasW

    AndreasW Registrierter Benutzer

    Im Board seit:
    16.05.05
    Zuletzt hier:
    8.10.14
    Beiträge:
    1.469
    Ort:
    Hamburg
    Zustimmungen:
    4
    Kekse:
    2.972
    Erstellt: 06.10.05   #6
    Ich spiele das Intro so:
    E||------|----------------------|----------------------|-----------------------|
    B||------|--45------------2------|----------------------|-----------------------|
    G||------|-----------------4-2--|--4----------------2--|--4r---2--------2------|
    D||------|----------------------|---------------2-4----|------------------4-2--|
    A||------|----------------------|----------------------|-----------------------|
    E||------|----------------------|----------------------|-----------------------|


    A
    --------------2-----------||
    -------1-2--5----5--------||
    --2-----------------4r-2--||
    --------------------------||
    --------------------------||
    --------------------------|

    4= Vorschlagnote
    r= Ganzton Bend/Release


    Andreas
     
  7. luiggi1102

    luiggi1102 Threadersteller Registrierter Benutzer

    Im Board seit:
    28.09.05
    Zuletzt hier:
    11.10.05
    Beiträge:
    2
    Zustimmungen:
    0
    Kekse:
    10
    Erstellt: 07.10.05   #7
    danke an alle habt mir sehr weitergeholfen
    :great:
     
Die Seite wird geladen...

mapping