Das beste Riff...

von Metallic, 14.08.04.

  1. Metallic

    Metallic Registrierter Benutzer

    Im Board seit:
    12.08.04
    Zuletzt hier:
    12.03.05
    Beiträge:
    687
    Zustimmungen:
    2
    Kekse:
    26
    Erstellt: 14.08.04   #1
    Hi,

    welches ist euer Lieblingsriff. Ich finde das Intro von "The Trooper" ist das beste Riff, dass Iron Maiden je gespielt hat...

    E||----------------------------|-----------------------------|
    B||----------------------------|-----------------------------|
    G||----------------------------|-----------------------------|
    D||----------------------------|--------------------5--------|
    A||--7--7--7h5----5--5--5h3---|--3--3--3h2----5-----5--7~~|
    E||------------7-------------5--|------------3---------------|

    Maximum sind 3-4 Takte, weil sonst hier ganze Lieder stehen...
     
  2. oiz

    oiz Registrierter Benutzer

    Im Board seit:
    06.02.04
    Zuletzt hier:
    15.11.16
    Beiträge:
    259
    Zustimmungen:
    14
    Kekse:
    45
    Erstellt: 14.08.04   #2
    Into the Void - Black Sabbath, mehr als genial :)

    Code:
    |------------------------------------------------------------------------
    |------------------------------------------------------------------------
    |------------------------------------------------------------------------
    |---------------2-----1-----0------------------------------------2-------
    |---------0-1-2-----2-----2---1~---0h1p0---0h1p0---0h1p0---0-1-2---2p0---
    |-(7)\0-3--------------------------------3-------3-------3-------------3-
    
     
  3. Hellfire

    Hellfire Registrierter Benutzer

    Im Board seit:
    01.07.04
    Zuletzt hier:
    11.11.12
    Beiträge:
    2.477
    Zustimmungen:
    3
    Kekse:
    1.173
    Erstellt: 14.08.04   #3
    Gibt viele aber was mir spontan einfällt is das Riff in War Ensemble von Slayer, das nach dem mini-drumsolo kommt.

    P.M............................................
    Eb|----------------------------------------------------------------|
    Bb|----------------------------------------------------------------|
    Gb|----------------------------------------------------------------|
    Db|----8-7---------------------------------------------------------|
    Ab|----8-7-----6--5-----8-7---7-6----5--7--8----------------------|
    Eb|0--------0--6--5--0--8-7-0-7-6----3--5--6----------------------|

    Das haut richtig rein, alleine kommts nicht richtig rüber aber mit Schlagzeug und Gesang einfach hammer.
     
  4. Metal Up your ass

    Metal Up your ass Gesperrter Benutzer

    Im Board seit:
    28.03.04
    Zuletzt hier:
    21.09.04
    Beiträge:
    381
    Zustimmungen:
    1
    Kekse:
    10
    Erstellt: 14.08.04   #4
    BLACK SABBATH- SABBATH BLODY SABBATH
    ist auch simpel, aber hört sich irgend wie göttlich an :great:
    e-------------------------------------------------
    -------------------------------------------------
    -------------------------------------------------
    -------------------------------------------------
    --9-11-11-11--9-11-11-11-7-9-11-14--7-7----------
    E-7-9--9--9---7-9--9--9--5-7-9--12--9-9----------
     
  5. Ov3r Kill

    Ov3r Kill Registrierter Benutzer

    Im Board seit:
    15.05.04
    Zuletzt hier:
    3.10.15
    Beiträge:
    190
    Zustimmungen:
    0
    Kekse:
    19
    Erstellt: 14.08.04   #5
    Speed of Light (Stratovarius):

    ||--------------------------------|---------------------------------------|
    ||--------------------------------|---------------------------------------|
    ||--------------------------------|---------------------------------------|
    ||------9---------9h10h9-7-9------|------9--------------------------------|
    ||--7-7-----7-7-7-------------7-7-|--7-7----7-7-7-7-12-12-10-10-9-9-10-10-|
    ||--------------------------------|---------------------------------------|



    --------------------------------|----------------------------------------|
    --------------------------------|----------------------------------------|
    --------------------------------|----------------------------------------|
    ------9---------9h10h9-7-9------|--12-10-9-7-10-9-7----9-7------7--------|
    --7-7-----7-7-7-------------7-7-|-------------------10-----10-9---10-9-7-|
    --------------------------------|----------------------------------------|

    gefällt mir z.Z(!) am besten irgendwie :)
     
  6. Metallic

    Metallic Threadersteller Registrierter Benutzer

    Im Board seit:
    12.08.04
    Zuletzt hier:
    12.03.05
    Beiträge:
    687
    Zustimmungen:
    2
    Kekse:
    26
    Erstellt: 14.08.04   #6
    Super Antworten! Genau so hab ich mir das gedacht mit den Riffs. Ich poste auch noch mal eins von Metallica - Seek and Destroy...

    E||---------------------------|-------------------------|
    B||---------------------------|-------------------------|
    G||--------7h8-7--------------|-------------------5-----|
    D||--------------------7h8-7--|-------------5--------7--|
    A||--0--0-----------0---------|----0--8--7-----7--------|
    E||---------------------------|-------------------------|

    Hört sich immer gut an...mit Verzerrung natütlich :)
     
  7. Haianson

    Haianson Registrierter Benutzer

    Im Board seit:
    14.10.03
    Zuletzt hier:
    14.04.11
    Beiträge:
    988
    Zustimmungen:
    1
    Kekse:
    3.255
    Erstellt: 14.08.04   #7
    is zwar net ganz am anfang
    aber slayer -season in the abyss

    ||-----------0-----------------------0----------------|
    ||--------0-----0-----------------0-----0-------------|
    ||-----3-----------3-----3-----3-----------3-----3----|
    ||--2-----------------2-----2-----------------2-------|
    ||----------------------------------------------------|
    ||----------------------------------------------------|


    |-----------0-----------------------0-----------0----||
    |--------0-----0-----------------0-----------0-------||
    |-----3-----------3-----3-----3-----------3----------||
    |--3-----------------3-------------------------------||
    |--------------------------3-----------2-------------||
    |----------------------------------------------------||

    is einfach und hört sich klasse an
    meiner meinung die beste art einen schlechten traum darzustellen
     
  8. oppo

    oppo Registrierter Benutzer

    Im Board seit:
    10.07.04
    Zuletzt hier:
    17.02.14
    Beiträge:
    72
    Ort:
    Winsen Luhe \ Kassel
    Zustimmungen:
    1
    Kekse:
    134
    Erstellt: 14.08.04   #8
    ich finde das intro von crazy train zwar sehr leicht aber geil :

    |-------------------------------------------------------|
    |-------------------------------------------------------|
    |-------------------------------------------------------|
    |-------------------------------------------------------|
    |------4---5---4-----2---------2---------------------|
    |--2-2---2---2---2-----5-4-5----5-4-0------------|


    aber ich finde das intro passt nicht zum rest des liedes..
    ich finde es hört sich irgendwie düster an wobei es direkt nach dem intro ziemlich fröhlich weitergeht...
    hab mich voll gewundert als ich das lied zum ersten mal gehört hab
     
  9. Wrathchild

    Wrathchild Registrierter Benutzer

    Im Board seit:
    18.10.03
    Zuletzt hier:
    21.08.13
    Beiträge:
    679
    Ort:
    Ulm
    Zustimmungen:
    12
    Kekse:
    823
    Erstellt: 14.08.04   #9
    |----------3----1-3p1---------------0-(0)-0----------0-(0)-0---------
    |-------3--------------3p0----------1-(1)-1----------1-(1)-1---------
    |----2--------------------------2--------------------0-(0)-0---------
    |-0--------------------------3-------------------2-------------------
    |----------------------------------------------3---------------------
    |--------------------------------------------------------------------


    Das Intro von Everlast- What it´s like
    schnappt euch einfach mal kurz eure Gitarre und spielt das, ihr werdet so ein lächeln im Gesicht haben :D :D :D
     
  10. Christoph

    Christoph Registrierter Benutzer

    Im Board seit:
    18.08.03
    Zuletzt hier:
    6.12.16
    Beiträge:
    1.013
    Ort:
    H-Haus
    Zustimmungen:
    0
    Kekse:
    87
    Erstellt: 14.08.04   #10
    Sabbra Cadabra Intro von Sabbath und Back in Black Intro von ADDC! ansonsten noch das painkiller riff
     
  11. BigBrueder

    BigBrueder Registrierter Benutzer

    Im Board seit:
    04.12.03
    Zuletzt hier:
    1.12.16
    Beiträge:
    405
    Ort:
    A-Deutschlandsberg
    Zustimmungen:
    1
    Kekse:
    56
    Erstellt: 14.08.04   #11
    Da schließ ich mich an. Einfach Genial!
     
  12. oiz

    oiz Registrierter Benutzer

    Im Board seit:
    06.02.04
    Zuletzt hier:
    15.11.16
    Beiträge:
    259
    Zustimmungen:
    14
    Kekse:
    45
    Erstellt: 14.08.04   #12
    Also Everlast - What it's like is ja mehr ne Melodie als ein Riff finde ich, Riff baut den ganzen Rhythmus auf imo.

    Kann man eigentlich direkt jedes Lied von Sabbath, oder Stoner/Hardrock Bands wie Kyuss, Clutch etc nennen.

    Auch geil zum Beispiel Karma To Burn - Twenty

    Super einfaches, aber sehr geiles Riff -> ZZ Top - La Grange
     
  13. gurkenpflanze

    gurkenpflanze Registrierter Benutzer

    Im Board seit:
    25.07.04
    Zuletzt hier:
    21.12.07
    Beiträge:
    105
    Zustimmungen:
    0
    Kekse:
    36
    Erstellt: 14.08.04   #13
    E-------5-7-----7-|-8-----8-2-----2-|-0---------0-----|-----------------|
    B-----5-----5-----|---5-------3-----|---1---1-----1---|-0-1-1-----------|
    G---5---------5---|-----5-------2---|-----2---------2-|-0-2-2-----------|
    D-7-------6-------|-5-------4-------|-3---------------|-----------------|
    A-----------------|-----------------|-----------------|-2-0-0---0--/8-7-|
    E-----------------|-----------------|-----------------|-----------------|

    :rolleyes: :p
     
  14. Metallic

    Metallic Threadersteller Registrierter Benutzer

    Im Board seit:
    12.08.04
    Zuletzt hier:
    12.03.05
    Beiträge:
    687
    Zustimmungen:
    2
    Kekse:
    26
    Erstellt: 14.08.04   #14
    Hört sich an wie ein Lied aus Doom 2 !!! Sehr gut !!!
     
  15. RAGMAN

    RAGMAN Mod Emeritus - Gitarren Ex-Moderator

    Im Board seit:
    19.08.03
    Zuletzt hier:
    31.08.13
    Beiträge:
    5.410
    Ort:
    zu Hause...
    Zustimmungen:
    12
    Kekse:
    2.538
    Erstellt: 14.08.04   #15
    CRAZY TRAIN ist geil. die Live at Budokan Version mit Zakk gefällt mir perönlich am besten, dicht gefolgt von der Live Version vom Tribute Album mit Randy...

    RAGMAN
     
  16. nigs

    nigs Registrierter Benutzer

    Im Board seit:
    18.07.04
    Zuletzt hier:
    15.01.07
    Beiträge:
    836
    Ort:
    Amoltern - Kaiserstuh
    Zustimmungen:
    2
    Kekse:
    12
    Erstellt: 14.08.04   #16
    ---------12\-----------------------------------------3-5-3-3---
    ---------12\----------------------------5------------3---------
    ------X--12\--------X-----------0---5---5------0---------------
    ------X-------------X----X-------5--5---7\-------------------5-
    ------X--12\--------X----X--0-2--5-7---------------------------
    ------------0------------X-----------------2\3-----------------

    Erstes Stückchen des LittleWing-Intros :)

    P.S.: Bevor jetzt Fragen kommen, es ist vom Meister persönlich, Jimi Hendrix :p
     
  17. oiz

    oiz Registrierter Benutzer

    Im Board seit:
    06.02.04
    Zuletzt hier:
    15.11.16
    Beiträge:
    259
    Zustimmungen:
    14
    Kekse:
    45
    Erstellt: 14.08.04   #17
    Riff
    n 1: a Berber living in northern Morocco [syn: Riff, Riffian]
    2: a jazz ostinato; usually provides a background for a solo improvisation

    im Gegensatz zu:

    lick (MUSIC)
    noun {C} SPECIALIZED

    in jazz or rock music, a short series of notes played by one musician


    Jaja Klugscheißer, Besserwisser, etc .. aber ich fänds einfach interessanter wenn wir das hier wirklich mal nur auf Riffs beschränken und nicht jeder einfach wieder seinen Lieblingssong postet, wie schon tausende Male davor.
    Nur ein Vorschlag :)
     
  18. RAGMAN

    RAGMAN Mod Emeritus - Gitarren Ex-Moderator

    Im Board seit:
    19.08.03
    Zuletzt hier:
    31.08.13
    Beiträge:
    5.410
    Ort:
    zu Hause...
    Zustimmungen:
    12
    Kekse:
    2.538
    Erstellt: 14.08.04   #18
    macht doch jeder ausser "oiz" der noch ein paar Bands nannte..

    RAGMAN
     
  19. oiz

    oiz Registrierter Benutzer

    Im Board seit:
    06.02.04
    Zuletzt hier:
    15.11.16
    Beiträge:
    259
    Zustimmungen:
    14
    Kekse:
    45
    Erstellt: 14.08.04   #19
    Also ich weiß ja nicht .. den Anfang von Stairway to Heaven als Riff zu bezeichnen .. oder das Intro zu Little Wing?

    Die Bands hab ich ja nur am Rande genannt, weil sie eben sehr Rifflastig sind (deswegen auch geschrieben -> Kann man eigentlich direkt jedes Lied von Sabbath, oder Stoner/Hardrock Bands wie Kyuss, Clutch etc nennen.)

    Falls das wen stört kann er das gern ignorieren .. zum Thema beitragend hab ich ja noch zwei weitere Beispiele für gute Riffs angeführt.
    Seh da also kein Problem drin.
    Wiegsagt .. nur ein Vorschlag ;)
     
  20. RAGMAN

    RAGMAN Mod Emeritus - Gitarren Ex-Moderator

    Im Board seit:
    19.08.03
    Zuletzt hier:
    31.08.13
    Beiträge:
    5.410
    Ort:
    zu Hause...
    Zustimmungen:
    12
    Kekse:
    2.538
    Erstellt: 14.08.04   #20

    Ist ein Intro kein Riff?

    mich stört es nicht, aber Dich wohl, sonst hättest ja den Vorschlag nicht gemacht!?

    RAGMAN
     
Die Seite wird geladen...

mapping