Das neue Tab Rate spiel hier neu

von TM89, 17.09.04.

  1. TM89

    TM89 Registrierter Benutzer

    Im Board seit:
    17.08.04
    Zuletzt hier:
    1.05.12
    Beiträge:
    1.011
    Ort:
    Dülmen
    Zustimmungen:
    0
    Kekse:
    17
    Erstellt: 17.09.04   #1
    Hallo dies ist ein Spiel in den ihr Tab´s erraten


    bei spiel :

    --------------------------------------------
    --------------------------------------------
    ------0-3-5-0-3-6u5-0-3-5-3-0-0-----------
    ------0-3-5-0-3-6u5-0-3-5-3-0-0-----------
    --------------------------------------------
    --------------------------------------------



    das ist na :rolleyes:
    natürlich SMOKE ON THE WATER von Deep Purple


    und immer so weiter :great:
     
  2. metalicat23

    metalicat23 Registrierter Benutzer

    Im Board seit:
    16.05.04
    Zuletzt hier:
    24.01.14
    Beiträge:
    132
    Ort:
    Amberg
    Zustimmungen:
    0
    Kekse:
    10
    Erstellt: 17.09.04   #2
    O.K., ich hoff da kann man draufkommen.

    ----------------------------------------
    ----------------------------------------
    --------2-2---2-----3-2---2------------
    --------3-2---2-----3-2---2------------
    .-1-3-1-1-0---0-----1-0---0-----------
     
  3. TM89

    TM89 Threadersteller Registrierter Benutzer

    Im Board seit:
    17.08.04
    Zuletzt hier:
    1.05.12
    Beiträge:
    1.011
    Ort:
    Dülmen
    Zustimmungen:
    0
    Kekse:
    17
    Erstellt: 17.09.04   #3
    Das erste was ihr erraten müsst ist das



    |----------------------------------------|
    |----------------------------------------|
    |--------------10-------------10~-------|
    |----10-10-12-----12-14-10-12----------|
    |----------------------------------------|
    |----------------------------------------|


    nah wer weis es ?
     
  4. Comrade

    Comrade Registrierter Benutzer

    Im Board seit:
    19.02.04
    Zuletzt hier:
    4.01.14
    Beiträge:
    1.894
    Ort:
    Ingolstadt
    Zustimmungen:
    2
    Kekse:
    276
    Erstellt: 17.09.04   #4
    Megadeth --> Symphony of destruction
     
  5. TM89

    TM89 Threadersteller Registrierter Benutzer

    Im Board seit:
    17.08.04
    Zuletzt hier:
    1.05.12
    Beiträge:
    1.011
    Ort:
    Dülmen
    Zustimmungen:
    0
    Kekse:
    17
    Erstellt: 17.09.04   #5
    wehr wies das na :)


    |----------------------------------------|
    |----------------------------------------|
    |--------------10-------------10~-------|
    |----10-10-12-----12-14-10-12----------|
    |----------------------------------------|
    |----------------------------------------|
     
  6. Lord Worm

    Lord Worm Registrierter Benutzer

    Im Board seit:
    04.08.04
    Zuletzt hier:
    26.03.15
    Beiträge:
    528
    Zustimmungen:
    1
    Kekse:
    245
    Erstellt: 17.09.04   #6
    Whiskey in the jar room vielleicht?
     
  7. TM89

    TM89 Threadersteller Registrierter Benutzer

    Im Board seit:
    17.08.04
    Zuletzt hier:
    1.05.12
    Beiträge:
    1.011
    Ort:
    Dülmen
    Zustimmungen:
    0
    Kekse:
    17
    Erstellt: 17.09.04   #7
    Das ist richtig :great:

    wer wies das :

    |-----|------------------------------|
    |-----|------------------------------|
    |-----|------------------------------|
    |-----|------------------------------|
    |-----|-----0---0---------2-----2---|
    |-0-0-|-1-2---2---2-2-1-0---0-0---0-|
     
  8. LoneLobo

    LoneLobo Mod Emeritus Ex-Moderator HCA

    Im Board seit:
    13.04.04
    Zuletzt hier:
    25.11.16
    Beiträge:
    8.457
    Ort:
    Österreich
    Zustimmungen:
    138
    Kekse:
    22.219
    Erstellt: 17.09.04   #8
    das is Nirvana - Come as you are :)

    Nächstes Stück zum erraten:

    etwas schwerer als bisher, kennt aber glaub ich mal jeder ;)

    |-----------------------------|
    |---------12------------------|
    |-----9-------11-12----------|
    |-----------------------------|
    |-----------------------------|
    |-----------------------------| Wird wiederholt
     
  9. Shagrat

    Shagrat Registrierter Benutzer

    Im Board seit:
    13.06.04
    Zuletzt hier:
    14.09.07
    Beiträge:
    604
    Ort:
    Schweiz
    Zustimmungen:
    1
    Kekse:
    77
    Erstellt: 17.09.04   #9
    @LoneLobo: oh du warst schneller, das hätte ich auch gewusst :cool:
     
  10. Ray

    Ray Mod Emeritus Ex-Moderator HCA

    Im Board seit:
    22.08.03
    Zuletzt hier:
    24.06.15
    Beiträge:
    13.344
    Ort:
    Frankfurt
    Zustimmungen:
    65
    Kekse:
    8.834
    Erstellt: 17.09.04   #10
    Tab raten ist doof. Entweder, man kennt den Song, dann isser eindeutig identifiziert. Oder man kennt ihn nicht, dann hilft net mal das ganze Tab.

    Ich find das tschk tschk deideldü dum dum dum -Raten besser :-)
     
  11. TM89

    TM89 Threadersteller Registrierter Benutzer

    Im Board seit:
    17.08.04
    Zuletzt hier:
    1.05.12
    Beiträge:
    1.011
    Ort:
    Dülmen
    Zustimmungen:
    0
    Kekse:
    17
    Erstellt: 17.09.04   #11
    dann sach schon wer ist es :(


    Ich mach schon mal das nechste ok

    e|---------------------------------------|
    B|---------------------------------------|
    G|------------------------7-h9------7-h9-|
    D|-9>----9>----9>----7-h9------7-h9------|
    A|-7>----7>----7>------------------------|
    E|---------------------------------------|
     
  12. LoneLobo

    LoneLobo Mod Emeritus Ex-Moderator HCA

    Im Board seit:
    13.04.04
    Zuletzt hier:
    25.11.16
    Beiträge:
    8.457
    Ort:
    Österreich
    Zustimmungen:
    138
    Kekse:
    22.219
    Erstellt: 17.09.04   #12
    hä?

    du solltest weniger rauchen D:

    wie wärs denn wieder mit so nem geschwindigkeits+sauberkeits-"wettbewerb", das kleine arpeggio vom letzten Mal spiel ich andauernd, weils mir so gut gefällt xD

    [e]TM, wieso machst du n neues, obwohl das alte noch nicht gefunden wurde?

    [e2]deins is übrigens paranoid von black sabbath.
     
  13. TM89

    TM89 Threadersteller Registrierter Benutzer

    Im Board seit:
    17.08.04
    Zuletzt hier:
    1.05.12
    Beiträge:
    1.011
    Ort:
    Dülmen
    Zustimmungen:
    0
    Kekse:
    17
    Erstellt: 17.09.04   #13
    weil es zu schwer ist
     
  14. LoneLobo

    LoneLobo Mod Emeritus Ex-Moderator HCA

    Im Board seit:
    13.04.04
    Zuletzt hier:
    25.11.16
    Beiträge:
    8.457
    Ort:
    Österreich
    Zustimmungen:
    138
    Kekse:
    22.219
    Erstellt: 17.09.04   #14
    definierst du das?
     
  15. TM89

    TM89 Threadersteller Registrierter Benutzer

    Im Board seit:
    17.08.04
    Zuletzt hier:
    1.05.12
    Beiträge:
    1.011
    Ort:
    Dülmen
    Zustimmungen:
    0
    Kekse:
    17
    Erstellt: 17.09.04   #15
    ich kann es nicht mit sowenig tab´s erkenen ;)
     
  16. RAGMAN

    RAGMAN Mod Emeritus - Gitarren Ex-Moderator

    Im Board seit:
    19.08.03
    Zuletzt hier:
    31.08.13
    Beiträge:
    5.410
    Ort:
    zu Hause...
    Zustimmungen:
    12
    Kekse:
    2.538
    Erstellt: 17.09.04   #16
    paranoid...
     
  17. TM89

    TM89 Threadersteller Registrierter Benutzer

    Im Board seit:
    17.08.04
    Zuletzt hier:
    1.05.12
    Beiträge:
    1.011
    Ort:
    Dülmen
    Zustimmungen:
    0
    Kekse:
    17
    Erstellt: 17.09.04   #17
    Das ist Richtig :great:

    das nächste


    E-|---------------------------------------|
    B-|---------------------------------------|
    G-|-----------------------2--1--0---------|
    D-|--0---0---3p2------0------------3------|
    A-|---------------3-----------------------|
    E-|---------------------------------------|
     
  18. TM89

    TM89 Threadersteller Registrierter Benutzer

    Im Board seit:
    17.08.04
    Zuletzt hier:
    1.05.12
    Beiträge:
    1.011
    Ort:
    Dülmen
    Zustimmungen:
    0
    Kekse:
    17
    Erstellt: 17.09.04   #18
    Wenn das keiner weis da das ist :Iron Butterfly
    Mit den lied : In-A-Gadda-Da-Vida


    das nächste :

    e|---------------------------------------------------------
    b|---------------------------------------------------------
    g|-----------7---7---9---9---7---7-------------------------
    d|---7---7---7---7---9---9---7---7-------------------------
    a|---7---7---5---5---7---7---5---5-------------------------
    e|---5---5-------------------------------------------------


    wehr weis es ?
     
  19. am_i_jesus?

    am_i_jesus? Registrierter Benutzer

    Im Board seit:
    01.08.04
    Zuletzt hier:
    26.05.09
    Beiträge:
    1.003
    Zustimmungen:
    0
    Kekse:
    567
    Erstellt: 17.09.04   #19
    maaah!
    mein lieblings-riff! das wollte ich posten! sooo geil das lied!
     
  20. dotvoid

    dotvoid Registrierter Benutzer

    Im Board seit:
    15.05.04
    Zuletzt hier:
    23.10.10
    Beiträge:
    1.725
    Zustimmungen:
    0
    Kekse:
    195
    Erstellt: 17.09.04   #20
    feuer oder bundeswehr? ;).

    ich kenn ein grossteil der songs hier nicht .. mäh ..
     
Die Seite wird geladen...

mapping