Dire Straits - Southbound Again

von ATK, 22.02.06.

Status des Themas:
Es sind keine weiteren Antworten möglich.
  1. ATK

    ATK Registrierter Benutzer

    Im Board seit:
    02.10.05
    Zuletzt hier:
    4.06.09
    Beiträge:
    261
    Ort:
    N ü r n b e r g
    Zustimmungen:
    0
    Kekse:
    42
    Erstellt: 22.02.06   #1
    wie spiele ich Southbound Again ?

    was soll das ^ heißen?
    auf was muss ich achten?

    Southbound again

    Am [ G D]
    -----------------|-------------------|| -3---2-
    -------1-1^0-----|---------1-1^0-----|| -0---3-
    ---x-2-------2-0-|---2-2-x-------2-0-|| -0---2-
    -----------------|-------------------|| -0---0-
    -0---------------|-0-----------------|| -2-----
    -----------------|-------------------|| -3-----

    Am D D
    -----------------|-------------------|-------------------|
    -------1-1^0-----|---x-3-3-1-1^0-----|---x-3-3-1-1^0-----|
    ---x-2-------2-0-|---------------2-0-|---------------2-0-|
    -----------------|-0-----------------|-0-----------------|
    -0---------------|-------------------|-------------------|
    -----------------|-------------------|-------------------|

    Intro = Am Am

    Am [G D ] Am
    Southbound again, I don't know if I'm going or leaving home

    Am D D Am
    Southbound again, I don't know if I'm going or leaving home

    Am D D Am
    Boy's bound to be moving, Seems like the boy is bound to roam



    Am [ G D] Am
    Every single time, I roll across the rolling River Tyne

    Am D D Am
    Every single time, I roll across the rolling River Tyne

    Am D D Am
    I get the same old feeling, Every time I'm moving down the line


    Solo at 1”14
    Am Am [G D] Am Am D
    -----|---|---|-3-------3-|---------|---|---|-3-3~(5)-3^0^3^0-----|-----------|
    -1^2-|---|---|-3~(5)---3-|-1^3^1^3-|---|---|-----------------1---|-x-1^3-1---|
    -----|---|---|-----------|---------|-2-|---|-------------------2-|---------2-|
    -----|---|---|-----------|---------|---|---|---------------------|-----------|
    -----|---|---|-----------|---------|---|---|---------------------|-----------|
    -----|---|---|-----------|---------|---|---|---------------------|-----------|

    D Am Am D D
    -------------------|-0-3^0--------|---|-9—-9---7-7-|------5---8-|-5^7^5---5-------|
    -x-1^3-1---1-3~(5)-|--------3^1---|---|-10-10—-8-8-|--->7---x---|-------7---x-7---|
    ---------2---------|------------2-|-2-|------------|------------|---------------5-|
    -------------------|--------------|---|------------|------------|-----------------|
    -------------------|--------------|---|------------|------------|-----------------|
    -------------------|--------------|---|------------|------------|-----------------|

    Am
    -------|-5-x-8^5^7-5---|
    -------|---------------|
    -2-0^2-|---------------|
    -------|---------------| Am Am
    -------|---------------|
    -------|---------------|


    Am [ G D] Am
    Southbound again, last night I felt like crying (like cryin')

    Am D D Am
    Southbound again, last night I felt like crying

    Am D D Am
    Right now I'm sick of living, But I'm going to keep on trying





    Am Am Am …



    ----------------|----------------------|--------12---------12--------12-----------|
    -13-10----10----|-13^15^13-10----10----|-15~(17)---15~(17)----15~(17)---15~(17)---|
    -------12----12-|-------------12----12-|------------------------------------------|
    ----------------|----------------------|------------------------------------------|
    ----------------|----------------------|------------------------------------------|
    ----------------|----------------------|------------------------------------------|



    -15------15------15------|-------------------------|
    -18~(20)-18~(20)-18~(20)-|---17-16-15>13-----13----|
    -------------------------|-x--------------14----12-|
    -------------------------|-------------------------| to fade out
    -------------------------|-------------------------|
    -------------------------|-------------------------|
     
Die Seite wird geladen...

Status des Themas:
Es sind keine weiteren Antworten möglich.
mapping