Dringend!!! Bass Tab zu "Here by Me"

von Fak3d, 22.10.05.

  1. Fak3d

    Fak3d Registrierter Benutzer

    Im Board seit:
    25.06.04
    Zuletzt hier:
    12.12.13
    Beiträge:
    129
    Ort:
    Duisburg, Germany
    Zustimmungen:
    0
    Kekse:
    22
    Erstellt: 22.10.05   #1
    Hi,

    Ich brauche ganz dringend einen Bass Tab zu dem Song von 3 Doors Down: Here by Me.
    Meine Fähigkeiten sind leider noch nicht so ausgeprägt, dass ich ihn selber schreiben könnte, deswegen wäre es sehr, sehr gut, wenn sich hier jemand darum kümmert.

    Im Internet ist dazu gar nichts zu finden...
    Also, wenn es jemand schafft, das ganze bis morgen zu tabben, würde mich das sehr glücklich machen :great: :D
     
  2. Fastel

    Fastel Helpful & Friendly User HFU

    Im Board seit:
    11.04.04
    Zuletzt hier:
    5.12.16
    Beiträge:
    5.926
    Ort:
    Tranquility Base
    Zustimmungen:
    565
    Kekse:
    18.025
    Erstellt: 22.10.05   #2
    ich kenne das lied nicht aber vielleicht helfen dir ja auch die gitarrenakkorde weiter
     
  3. maz0r

    maz0r Registrierter Benutzer

    Im Board seit:
    26.03.05
    Zuletzt hier:
    27.07.09
    Beiträge:
    128
    Zustimmungen:
    0
    Kekse:
    10
    Erstellt: 22.10.05   #3
    Mxtabs [http://www.mxtabs.net]
    Acustic guitar for HERE BY MY
    3 Doors Down
    Track number 12 from Seventeen days
    Tabbed By: Mariano Arnaiz
    Anything to : marianoarnaiz@hotmail.com
    Tunning: standar
    In this song as usually there are 2 guitars one filling with blues-kind riff and a electro-acustic or clean electric one picking notes and chords , wich is the one in this tab.


    Intro (finger picking)
    G* Csus
    e|---------------|---------------|
    B|--0-----0------|--1-----0------|
    G|----0-----0----|----0-----0----| x2
    D|------------0--|------0-----2--|
    A|------2--------|--3------------|
    E|--3------------|---------------|

    Verse 1 (finger picking)

    G* Csus G* Csus
    I hope you’re doing fine out without me
    Am C G* Csus
    ‘Cause I’m not doing so good without you
    G* Csus G* Csus
    The things I thought you’d never know about me
    Am C G* Csus
    Were the things I guess you always understood

    ___ G* Csus Am C G* Csus ___
    || e|---------------|---------------| e|-----------------|---------------||---------------|---------------| ||
    || B|--0-----0------|--1-----0------| B|--0h1-----1------|--1-----1------||--0-----0------|--1-----0------| ||Play all
    ||* G|----0-----0----|----0-----0----| x2 G|--2---2-----2----|----0-----0----||----0-----0----|----0-----0----|*|| Of
    ||* D|------------0--|------0-----2--| D|--------2-----2--|------2-----2--||------------0--|------0-----2--|*||These
    || A|------2--------|--3------------| A|--0--------------|--3------------||------2--------|--3------------| ||Twice
    || E|--3------------|---------------| E|-----------------|---------------||--3------------|---------------| ||
    --- ---

    Pre Chorus 1 (finger picking)
    Am C
    So how could I have been so blind for all these years?
    Am C
    Guess I only see the truth through all this fear,And living without you…

    Am C
    e|----------------------------------|------------------------------|
    B|--0h1-----1--------1-------1------|--1-----1--------1-----1------|
    G|--2---2-----2------2---2-----2----|----0-----0--------0-----0----|
    D|--------2-----2----------2-----2--|------2-----2--------2-----2--|
    A|--0----------------0--------------|--3--------------3------------|
    E|----------------------------------|------------------------------|

    Am C
    e|----------------------------------|-------------------------------|
    B|--0h1-----1--------1-------1------|--1-----1----------------0h1---|
    G|--2---2-----2------2---2-----2----|----0-----0------------0-------|
    D|--------2-----2----------2-----2--|------2-----2--------2---------|
    A|--0----------------0--------------|--3------------0-2-3-----------|
    E|----------------------------------|-------------------------------|


    Chorus (stuming chords)

    G Bm
    And everything I had in this world
    C Am
    And all that I’ll ever be
    C Am
    It could all fall down around me.
    C G Chorus fill
    Just as long as I have you,Right here by me.

    Chrous fill
    e|--19-17-14-----------|
    B|-----------15--------|
    G|--------------14-12--| x2
    D|---------------------|
    A|---------------------|
    E|---------------------|

    Verse 2 (same as verse 1) (finger picking)

    I can’t take another day without you
    ‘Cause baby, I could never make it on my own
    I’ve been waiting so long, just to hold you
    And be back in your arms where I belong


    ___ G* Csus Am C G* Csus ___
    || e|---------------|---------------| e|-----------------|---------------||---------------|---------------| ||
    || B|--0-----0------|--1-----0------| B|--0h1-----1------|--1-----1------||--0-----0------|--1-----0------| ||Play all
    ||* G|----0-----0----|----0-----0----| x2 G|--2---2-----2----|----0-----0----||----0-----0----|----0-----0----|*|| Of
    ||* D|------------0--|------0-----2--| D|--------2-----2--|------2-----2--||------------0--|------0-----2--|*||These
    || A|------2--------|--3------------| A|--0--------------|--3------------||------2--------|--3------------| ||Twice
    || E|--3------------|---------------| E|-----------------|---------------||--3------------|---------------| ||
    --- ---

    Pre Chorus 2 (same as pre chorus 1) (finger picking)

    Sorry I can’t always find the words to say
    But everything I’ve ever know gets swept away Inside of your love…
    Am C
    e|----------------------------------|------------------------------|
    B|--0h1-----1--------1-------1------|--1-----1--------1-----1------|
    G|--2---2-----2------2---2-----2----|----0-----0--------0-----0----|
    D|--------2-----2----------2-----2--|------2-----2--------2-----2--|
    A|--0----------------0--------------|--3--------------3------------|
    E|----------------------------------|------------------------------|

    Am C
    e|----------------------------------|-------------------------------|
    B|--0h1-----1--------1-------1------|--1-----1----------------0h1---|
    G|--2---2-----2------2---2-----2----|----0-----0------------0-------|
    D|--------2-----2----------2-----2--|------2-----2--------2---------|
    A|--0----------------0--------------|--3------------0-2-3-----------|
    E|----------------------------------|-------------------------------|


    Chorus (sturming chords)

    G Bm
    And everything I had in this world
    C Am
    And all that I’ll ever be
    C Am
    It could all fall down around me.
    C G Chorus fill
    Just as long as I have you,Right here by me.

    Chrous fill
    e|--19-17-14-----------|
    B|-----------15--------|
    G|--------------14-12--| x2
    D|---------------------|
    A|---------------------|
    E|---------------------|

    Bridge (sturming chords)

    Em C
    As the days grow long I see
    Em C
    That time is standing still for me
    Am
    When you’re not here

    Pre Chorus 3(same as pre chorus 2) (finger picking or picking both ways works ok)

    Sorry I can’t always find the words to say
    But everything I’ve ever know gets swept away Inside of your love…
    Am C
    e|----------------------------------|------------------------------|
    B|--0h1-----1--------1-------1------|--1-----1--------1-----1------|
    G|--2---2-----2------2---2-----2----|----0-----0--------0-----0----|
    D|--------2-----2----------2-----2--|------2-----2--------2-----2--|
    A|--0----------------0--------------|--3--------------3------------|
    E|----------------------------------|------------------------------|

    Am C
    e|----------------------------------|-------------------------------|
    B|--0h1-----1--------1-------1------|--1-----1----------------0h1---|
    G|--2---2-----2------2---2-----2----|----0-----0------------0-------|
    D|--------2-----2----------2-----2--|------2-----2--------2---------|
    A|--0----------------0--------------|--3------------0-2-3-----------|
    E|----------------------------------|-------------------------------|


    Chorus (sturming chords)


    G Bm
    And everything I had in this world
    C Am
    And all that I’ll ever be
    C Am
    It could all fall down around me.
    C G Chorus fill
    Just as long as I have you,Right here by me.

    Chrous fill
    e|--19-17-14-----------|
    B|-----------15--------|
    G|--------------14-12--| x1
    D|---------------------|
    A|---------------------|
    E|---------------------|

    G Bm
    And everything I had in this world
    C Am
    And all that I’ll ever be
    C Am
    It could all fall down around me.
    C G [The song ends on G)
    Just as long as I have you,Right here by me.
     
  4. Fak3d

    Fak3d Threadersteller Registrierter Benutzer

    Im Board seit:
    25.06.04
    Zuletzt hier:
    12.12.13
    Beiträge:
    129
    Ort:
    Duisburg, Germany
    Zustimmungen:
    0
    Kekse:
    22
    Erstellt: 23.10.05   #4
    Nö, die helfen mir nicht :screwy:

    Also, wenn jemand das hier liest: Bitte tabben!
     
  5. Fastel

    Fastel Helpful & Friendly User HFU

    Im Board seit:
    11.04.04
    Zuletzt hier:
    5.12.16
    Beiträge:
    5.926
    Ort:
    Tranquility Base
    Zustimmungen:
    565
    Kekse:
    18.025
    Erstellt: 24.10.05   #5
    schonmal daran gedacht selbst ne basslinie (basierend auf den durchaus hilfreichen akkorden) zu machen?
    damit wärst du wahrscheinlich längst fertig und würdest noch was dazu lernen anstatt hier den fertig gekochten brei abzustauben!!!

    dein beitrag klingt irgendwie sehr undankbar. da tabbe ich doch glatt mal gar nichts... vor allem weil du ja selbst anscheinend keinen finger gerührt hast.

    also selber :screwy:
     
  6. Fak3d

    Fak3d Threadersteller Registrierter Benutzer

    Im Board seit:
    25.06.04
    Zuletzt hier:
    12.12.13
    Beiträge:
    129
    Ort:
    Duisburg, Germany
    Zustimmungen:
    0
    Kekse:
    22
    Erstellt: 25.10.05   #6
    Ich wollte den exaxten Basslauf haben, weil ich es auch exaxt spielen wollte. Natürlich habe ich mir auch etwas selber gebastelt aus den Akkorden...

    Der Beitrag war deswegen mit einem ":screwy: " versehen, weil ich es schon geahnt hatte, dass jemand mir erstmal den Gitarren Tab reinschreibt, den ich ja schon selber hatte.
     
  7. thirsk

    thirsk Registrierter Benutzer

    Im Board seit:
    05.10.03
    Zuletzt hier:
    26.09.08
    Beiträge:
    96
    Zustimmungen:
    0
    Kekse:
    31
    Erstellt: 25.10.05   #7
    Ausgehend von den Akkorden (und damit den Grundtönen) ist es doch ein leichtes, die Variationen rauszuhören - learning by doing !
     
  8. Fak3d

    Fak3d Threadersteller Registrierter Benutzer

    Im Board seit:
    25.06.04
    Zuletzt hier:
    12.12.13
    Beiträge:
    129
    Ort:
    Duisburg, Germany
    Zustimmungen:
    0
    Kekse:
    22
    Erstellt: 25.10.05   #8
    Ich gebe mich geschlagen ;)

    Ok, ich werde mich wohl doch mal hinsetzen müssen :D
     
  9. thirsk

    thirsk Registrierter Benutzer

    Im Board seit:
    05.10.03
    Zuletzt hier:
    26.09.08
    Beiträge:
    96
    Zustimmungen:
    0
    Kekse:
    31
    Erstellt: 25.10.05   #9
    Es lohnt sich, das zu üben - raushören kann viel Spaß machen, wenn man's kann :)
     
Die Seite wird geladen...

mapping