Drop C Tuning und was für eine Pentatonik??

von Override061206, 22.01.08.

  1. Override061206

    Override061206 Registrierter Benutzer

    Im Board seit:
    11.03.07
    Zuletzt hier:
    21.01.15
    Beiträge:
    51
    Ort:
    Koblenz
    Zustimmungen:
    1
    Kekse:
    39
    Erstellt: 22.01.08   #1
    Hi!

    Spiele Drop C Tuning. Im moment noch Barree griffe. Wollte jetzt so paar Solis reissen und kann natürlich die Pentatoniken von der Standart stimmung vergessen.
    Aber welche oder wie benutze ich diese nun?
    Gibt es eine seite oder ähnliches wo man die Fingersätze zu Drop C Tuning sieht??

    Danke für eure Hilfe

    MFG

    Override
     
  2. 101010-fender

    101010-fender Registrierter Benutzer

    Im Board seit:
    20.08.03
    Zuletzt hier:
    2.10.12
    Beiträge:
    1.576
    Zustimmungen:
    1
    Kekse:
    1.930
    Erstellt: 22.01.08   #2
    Verstehe die Frage nicht wirklich...
    Warum sollte man nicht die Standard Pentatoniken von E-Basis auf C-Basis übertragen können ?

    E-Basis :

    Code:
     
    D||--17--14------------------------------------------||
    A||----------17--14----------------------------------||
    F||------------------16--14--------------------------||
    C||--------------------------16--14------------------||
    G||----------------------------------16--14----------||
    C||------------------------------------------19--16--||
    und zack zwei Töne bzw. vier Halbtöne runter auf C-Basis :

    Code:
    D||--13--10------------------------------------------||
    A||----------13--10----------------------------------||
    F||------------------12--10--------------------------||
    C||--------------------------12--10------------------||
    G||----------------------------------12--10----------||
    C||------------------------------------------15--12--||
    Oder verstehe ich die Frage falsch ?
     
  3. Override061206

    Override061206 Threadersteller Registrierter Benutzer

    Im Board seit:
    11.03.07
    Zuletzt hier:
    21.01.15
    Beiträge:
    51
    Ort:
    Koblenz
    Zustimmungen:
    1
    Kekse:
    39
    Erstellt: 22.01.08   #3
    Danke fuer die schnelle antwort.
    Ne das hast du richtig verstanden.Hatte wohl ein Brett vorm kopf.
    Wie du sagst man braucht nur verschieben.
    Man bin ich doof.Danke fuer die erleuchtung.
     
  4. 101010-fender

    101010-fender Registrierter Benutzer

    Im Board seit:
    20.08.03
    Zuletzt hier:
    2.10.12
    Beiträge:
    1.576
    Zustimmungen:
    1
    Kekse:
    1.930
    Erstellt: 22.01.08   #4
    No hay de qué :)
     
Die Seite wird geladen...

mapping