einfache,coole Licks?

von cnk, 25.08.05.

  1. cnk

    cnk Registrierter Benutzer

    Im Board seit:
    21.08.05
    Zuletzt hier:
    8.11.11
    Beiträge:
    27
    Zustimmungen:
    0
    Kekse:
    10
    Erstellt: 25.08.05   #1
    Guten Abend! ^^
    Ich wollte fragen ob ihr eventuell simple und doch cool klingende licks posten koenntet^^
    hab die egitarre jetzt ca. nen monat und will auch mal wat koennen ^^ danke im voraus!
     
  2. Phil_5

    Phil_5 Registrierter Benutzer

    Im Board seit:
    29.06.05
    Zuletzt hier:
    23.10.12
    Beiträge:
    256
    Zustimmungen:
    0
    Kekse:
    10
    Erstellt: 25.08.05   #2
    ja erm welche richtung ? am besten würd ich mal sagen ein powerchod nehmen und dazwischen palm muted parts rein und dass nach belieben verschieben. Also z.B. pm pm pm pm chord pm chord pm pm pm pm.... etc.
    und wenns rockiger werden soll den palm muted part durch scratches ersetzen.

    zur legende: pm = palm muted
    chord = powerchord (zb. A auf 5, D auf 7)
     
  3. cnk

    cnk Threadersteller Registrierter Benutzer

    Im Board seit:
    21.08.05
    Zuletzt hier:
    8.11.11
    Beiträge:
    27
    Zustimmungen:
    0
    Kekse:
    10
    Erstellt: 25.08.05   #3
    danke der schnellen antwort ^^ aer mit powerchords und pms bin ich shcon vertraut und beherrsche sie auch (glaub ich ^^) ich hatte eigentlich mehr mit melodie im sinn...also wo die linke hat mehr zu tun hat als nur chords zu halten ^^
     
  4. Phil_5

    Phil_5 Registrierter Benutzer

    Im Board seit:
    29.06.05
    Zuletzt hier:
    23.10.12
    Beiträge:
    256
    Zustimmungen:
    0
    Kekse:
    10
    Erstellt: 25.08.05   #4
    ajo na dann probier mal sowas:

    E|--8--5------5--------------------------------------------------------|
    H|---------8------8--5-----5--------------------------------------------|
    G|-----------------------7-----7--5-----5-------------------------------|
    D|------------------------------------7-----7--5-----5------------------|
    A|-------------------------------------------------7-----7--5-----5b-----|
    E|--------------------------------------------------------------7----|

    und dann kannst auch mal die stellen wo du z.B. auf der gleichen saite von 8 auf 5 greifst auch mit einem pull off spielen.
     
  5. cnk

    cnk Threadersteller Registrierter Benutzer

    Im Board seit:
    21.08.05
    Zuletzt hier:
    8.11.11
    Beiträge:
    27
    Zustimmungen:
    0
    Kekse:
    10
    Erstellt: 25.08.05   #5
    wenn ich mich nicht recht irre ist das die pentatonische tonleiter oder? mit der man so schoen improvisieren kann
     
  6. Haloman

    Haloman Registrierter Benutzer

    Im Board seit:
    02.04.05
    Zuletzt hier:
    7.08.14
    Beiträge:
    195
    Zustimmungen:
    0
    Kekse:
    18
    Erstellt: 25.08.05   #6
    Bis auf den allerletzten Ton, soweit ich mich nicht irre, ist das exakt die Penta ;)
     
  7. Phil_5

    Phil_5 Registrierter Benutzer

    Im Board seit:
    29.06.05
    Zuletzt hier:
    23.10.12
    Beiträge:
    256
    Zustimmungen:
    0
    Kekse:
    10
    Erstellt: 25.08.05   #7
    jenau stimmt da hab i mi verschrieben und zwar meint ihr die 7 die auf der E saite is das soll ne 8 sein :D.
     
  8. cnk

    cnk Threadersteller Registrierter Benutzer

    Im Board seit:
    21.08.05
    Zuletzt hier:
    8.11.11
    Beiträge:
    27
    Zustimmungen:
    0
    Kekse:
    10
    Erstellt: 25.08.05   #8
    okay ehm, ich hab das lick probiert, und da ich vertraut bin mit der pentatonik konnte ichs relativ schnell und etwas ohne fehler spielen...ehm..kennt ihr noch mehr licks? die ungefaehr gleich einfach sind oder n bissl schwerer?^^
     
  9. malteser

    malteser Registrierter Benutzer

    Im Board seit:
    18.01.04
    Zuletzt hier:
    12.05.08
    Beiträge:
    146
    Ort:
    Düsseldorf
    Zustimmungen:
    0
    Kekse:
    96
    Erstellt: 26.08.05   #9

    E||--5---7---5-----------5---7r-5---|--7---5--------||
    B||----8---8---8-6---6-7---7------8-|----8---6b-----||
    G||----------------7----------------|-------------7~---||



    Das sind alles 16tel bis auf das D ganz am Ende, das kannste länger halten.

    Im Ersten Takt gibts ja die Stelle wo auf das F ein F# folgt, hammer das mal. (Bund 6 & 7)

    Das letzte B im ersten Takt wird bis zum C gebendet und dann wieder auf das B released. Dieser Bend dauert zwei 16tel lang. (Glaube das ist nicht sofort ersichtlich).

    Im zweiten Takt machst du schnell beim F einen 1/4 Bend.
     
  10. cnk

    cnk Threadersteller Registrierter Benutzer

    Im Board seit:
    21.08.05
    Zuletzt hier:
    8.11.11
    Beiträge:
    27
    Zustimmungen:
    0
    Kekse:
    10
    Erstellt: 26.08.05   #10
    vielen dank fuer diesen lick, ich habs shco nversucht zu spielen...aber koennte es mal jemand spielen ders kann und uploaden? damit ich mal hoeren kann wies genau ist ^^ waere nett
     
  11. Fastel

    Fastel Helpful & Friendly User HFU

    Im Board seit:
    11.04.04
    Zuletzt hier:
    29.11.16
    Beiträge:
    5.925
    Ort:
    Tranquility Base
    Zustimmungen:
    565
    Kekse:
    18.025
    Erstellt: 26.08.05   #11
    möchtest du n paar songempfehlungen?
    im grunde hat der Hendrix ja ne menge licks ... aber ob du das als "einfach" bezeichnest :)
     
  12. Thorn

    Thorn Registrierter Benutzer

    Im Board seit:
    03.04.04
    Zuletzt hier:
    12.06.16
    Beiträge:
    1.141
    Ort:
    Meppen
    Zustimmungen:
    1
    Kekse:
    104
    Erstellt: 26.08.05   #12
    Komisch das noch keiner so richtige Lieder vorgeschlagen hat. naja dann mach ich das mal:D

    Also Standardlied mit leichtem Riff:

    Metallica - Enter Sandman

    Sonstnoch:

    Slayer - South Of Heaven
    Megadeath - Symphonie Of Destruction (nur der Anfang)
    Led Zeppelin - Whole Lotta Love


    Naja sowas in der art????
     
  13. Phil_5

    Phil_5 Registrierter Benutzer

    Im Board seit:
    29.06.05
    Zuletzt hier:
    23.10.12
    Beiträge:
    256
    Zustimmungen:
    0
    Kekse:
    10
    Erstellt: 26.08.05   #13
    schau ich hab nochwas tolles gefunden : *klick*
    Sind relativ einfache workshops die geil klingen und MP3s sind auch dabei. Viel spass beim üben
     
  14. PhilipH.

    PhilipH. Registrierter Benutzer

    Im Board seit:
    26.01.05
    Zuletzt hier:
    2.12.16
    Beiträge:
    316
    Ort:
    Lgz bei N
    Zustimmungen:
    21
    Kekse:
    584
    Erstellt: 26.08.05   #14
    Ich hab hier auch noch ein geiles lick




    e--------------8-12po8---------------------8-12po8------------
    H-----------10---------10----------------10--------10---------
    G---------9---------------9-------------9-------------9--------
    D------10-------------------10-------10----------------10-----
    A--12--------------------------12-12---------------------12---
    E---------------------------------------------------------------

    e-------------7-10po-7---------------------8-12po-8--------------
    H-----------8-----------8---------------10----------10-----------
    G---------7---------------7-----------9----------------9---------
    D-------9-------------------9-------10------------------10-------
    A----10-----------------------10-12------------------------12----
    E-----------------------------------------------------------------

    e---------------13-17po-13------------------12-15po-12-----------
    H------------15------------15-------------13-----------13---------
    G---------14-----------------14---------12---------------12-------
    D------15----------------------15-----14-------------------14-----
    A---17---------------------------17-15-----------------------15---
    E------------------------------------------------------------------

    e----------10-13po-10-----------------9-12-po-9-------------------
    H--------11-----------11------------10----------10----------------
    G------10---------------10---------9--------------9---------------
    D----12-------------------12-----11----------------11-------------
    A--13-----------------------13-12--------------------12-----------
    E------------------------------------------------------------------

    e------------------------------------------------------------------
    H------------------------------------------------------------------
    G---------------------12-14-15-14-12------------------------------
    D------------12-14-15----------------15-14-12---------------------
    A--12-14-16------------------------------------16-14-12-----------
    E-------------------------------------------------------------------

    e-----------13ho-17-t22po-17po-13--------------
    H---------15-----------------------15------------
    G-------14----------------------------14---------
    D----15----------------------------------15------
    A--17--------------------------------------17\---
    E-------------------------------------------------
     
  15. Martin Dillinger

    Martin Dillinger Registrierter Benutzer

    Im Board seit:
    25.05.05
    Zuletzt hier:
    17.07.07
    Beiträge:
    268
    Ort:
    Regensburg
    Zustimmungen:
    0
    Kekse:
    425
    Erstellt: 26.08.05   #15
    Er suchte einfache Licks und keine mittelschweren Arpeggios ;)
     
  16. Oliver_

    Oliver_ Registrierter Benutzer

    Im Board seit:
    15.04.05
    Zuletzt hier:
    23.11.16
    Beiträge:
    2.755
    Ort:
    Frankfurt am Main
    Zustimmungen:
    72
    Kekse:
    2.836
    Erstellt: 26.08.05   #16
    Iced Earth - Melancholy
     
  17. cnk

    cnk Threadersteller Registrierter Benutzer

    Im Board seit:
    21.08.05
    Zuletzt hier:
    8.11.11
    Beiträge:
    27
    Zustimmungen:
    0
    Kekse:
    10
    Erstellt: 26.08.05   #17
    ahh das sind ja mehr posts als ich angenommen hatte xD danke leute ich werde sofort alles ausprobieren ^^
     
  18. cnk

    cnk Threadersteller Registrierter Benutzer

    Im Board seit:
    21.08.05
    Zuletzt hier:
    8.11.11
    Beiträge:
    27
    Zustimmungen:
    0
    Kekse:
    10
    Erstellt: 27.08.05   #18
    ich versuch grad das solo von enter sandman und es ist so frustrierend :( ich kriegs nich hin, was mach ich falsch? oder wie sollte ich an das riff rangehen? help bitte :(
     
  19. franticfanatic

    franticfanatic Registrierter Benutzer

    Im Board seit:
    12.03.04
    Zuletzt hier:
    9.02.15
    Beiträge:
    284
    Zustimmungen:
    0
    Kekse:
    10
    Erstellt: 27.08.05   #19
    nach einem monat spielen muss man das nicht können...das wär echt unnormal. Aber wo hast du denn probleme mit dem riff...rechte oder linke hand?
     
  20. patrice

    patrice Registrierter Benutzer

    Im Board seit:
    26.12.04
    Zuletzt hier:
    25.09.07
    Beiträge:
    865
    Ort:
    Melchnau (CH)
    Zustimmungen:
    1
    Kekse:
    350
    Erstellt: 27.08.05   #20
    Ich habe es einmal angeschaut, als ich 5 Monate spielte, konnte es aber nicht. Jetzt, nach wohl etwa einem Jahr werde ich wohl mal wieder schauen, ob ich es hinbekomme.

    Das Solo ist aber wirklich heavy für jemanden, der erst so kurz spielt.. Sorry, würde ich dir nicht empfehlen!

    Patrice
     
Die Seite wird geladen...

mapping