errate - das Spiel (für Gitarristen)

von ThrashMetal, 26.08.05.

  1. ThrashMetal

    ThrashMetal Registrierter Benutzer

    Im Board seit:
    05.05.05
    Zuletzt hier:
    14.11.05
    Beiträge:
    297
    Zustimmungen:
    0
    Kekse:
    34
    Erstellt: 26.08.05   #1
    Hi erstmal alle zusammen.

    Also der Thread ist für die Leute, die genauso wie ich, oft langeweile haben, und kann immer genutzt werden wenn man mal wieder nichts zu tun hat. Eigentlich hat das hier kein Sinn aber es ist nur aus spaß.

    Also ich erkläre mal die Spielregeln:
    Man stellt hier paar hörproben von sich selber rein (z.b. 10 sek.) was auch nicht so schwer sein sollte, und man muss die Tabs davon erraten und aufschreiben, und der jenige der ein Lied Ausschnitt richtig erraten hat bzw. die richtigen Tabs aufgeschrieben hat bekommt ein Punkt und immer so weiter, wie gesagt, es sollte nicht allzu schwer sein. (Gut für die Leute die DSL flaterate haben :D) also ein kleines Internet Spiel, und bevor jetzt die Nörgler kommen und sagen, das ist total affig und langweilig, die können gerne den Thread wieder verlassen :)

    Ich fang dann mal an :)

    Hier ist mein Soundbeispiel (Nur den Hintzergrund)

    http://people.freenet.de/songs612/soundbeispiel.mp3
     
  2. Rasti

    Rasti Registrierter Benutzer

    Im Board seit:
    28.07.04
    Zuletzt hier:
    28.12.13
    Beiträge:
    752
    Ort:
    Neumünster
    Zustimmungen:
    0
    Kekse:
    635
    Erstellt: 26.08.05   #2
    macht es nicht mehr sinn mit den noten? schliesslich spielt jeder andere tunings. wenn ich also z.b. was auf drop-H spiel und nen solo spiel, kannst du mit deinem tuning meine tabs quasi garnet erraten. :p
     
  3. TheMasterHimself

    TheMasterHimself Registrierter Benutzer

    Im Board seit:
    12.08.05
    Zuletzt hier:
    28.06.08
    Beiträge:
    65
    Ort:
    bei Frankfurt a.M.
    Zustimmungen:
    0
    Kekse:
    38
    Erstellt: 26.08.05   #3
    also auf standarttuning:

    -----------------|
    -----------------|
    -----------------|
    ---2----2----2--| 3x
    0----0----0-----|
    -----------------|

    --------------|
    --------------|
    --------------|
    ---2----2----| 2x
    --------------|
    0----0-------|


    ---------------|
    ---------------|
    ---------------|
    ---0----0-----| 2x
    1----1--------|
    ---------------|

    das alles eben 2 mal (2. mal mit solo)
    hab jetz meine git. auf d aber dürfte so stimmen
    und mit der anzahl der wiederholungen bin ich mir auch net 100%ig sicher
     
  4. Saladi

    Saladi Registrierter Benutzer

    Im Board seit:
    03.05.05
    Zuletzt hier:
    6.06.16
    Beiträge:
    645
    Ort:
    Schweiz
    Zustimmungen:
    2
    Kekse:
    297
    Erstellt: 26.08.05   #4
    Fuck geiles lied :eek:!!!!!
    :D wie bitte soll ich das raushören? :D
     
  5. ThrashMetal

    ThrashMetal Threadersteller Registrierter Benutzer

    Im Board seit:
    05.05.05
    Zuletzt hier:
    14.11.05
    Beiträge:
    297
    Zustimmungen:
    0
    Kekse:
    34
    Erstellt: 27.08.05   #5
    Die richtigen Tabs sind: Standart Tuning !

    ------|------|------|----------------------------------|
    ------|------|------|----------------------------------|
    ------|------|------|----------------------------------|
    ------|------|------|----------------------------------|
    ------|------|------|----7---7---7---7---7---7---7---7-|
    ------|------|------|--5---5---5---5---5---5---5---5---|
    ------|------|------|----------------------------------|



    ----------------------------------|----------------------------------|
    ----------------------------------|----------------------------------|
    ----------------------------------|----------------------------------|
    ----------------------------------|----------------------------------|
    ----7---7---7---7---5---5---5---5-|----7---7---7---7---7---7---7---7-|
    --0---0---0---0---6---6---6---6---|--5---5---5---5---5---5---5---5---|
    ----------------------------------|----------------------------------|



    ----------------------------------|----------------------------------|
    ----------------------------------|----------------------------------|
    ----------------------------------|----------------------------------|
    ----------------------------------|----------------------------------|
    ----7---7---7---7---5---5---5---5-|----7---7---7---7---7---7---7---7-|
    --0---0---0---0---6---6---6---6---|--5---5---5---5---5---5---5---5---|
    ----------------------------------|----------------------------------|



    ----------------------------------|----------------------------------|
    ----------------------------------|----------------------------------|
    ----------------------------------|----------------------------------|
    ----------------------------------|----------------------------------|
    ----7---7---7---7---5---5---5---5-|----7---7---7---7---7---7---7---7-|
    --0---0---0---0---6---6---6---6---|--5---5---5---5---5---5---5---5---|
    ----------------------------------|----------------------------------|


    jetzt seid ihr,natürlich nicht zu schwer :D
     
  6. AgentOrange

    AgentOrange Mod Emeritus Ex-Moderator

    Im Board seit:
    16.04.04
    Zuletzt hier:
    6.12.16
    Beiträge:
    9.769
    Ort:
    Heidelberg
    Zustimmungen:
    353
    Kekse:
    7.549
  7. WildChild667

    WildChild667 Registrierter Benutzer

    Im Board seit:
    10.12.04
    Zuletzt hier:
    19.11.14
    Beiträge:
    697
    Ort:
    Ludwigsburg
    Zustimmungen:
    10
    Kekse:
    242
    Erstellt: 27.08.05   #7
    das is aber nich whiplash ?
    ich weiss das es das nich is, aber hat extreme ähnlichkeit ^^
    sag ma nachher die tabs wenns erraten is.. ^^
     
  8. AgentOrange

    AgentOrange Mod Emeritus Ex-Moderator

    Im Board seit:
    16.04.04
    Zuletzt hier:
    6.12.16
    Beiträge:
    9.769
    Ort:
    Heidelberg
    Zustimmungen:
    353
    Kekse:
    7.549
    Erstellt: 27.08.05   #8
    Ja darum gehts ja, dass jemand die tabs errät und nein das is nicht whiplash, erinnert mehr an hit the lights, isses aber auch net sondern was eigenes ...
     
  9. Fenriz

    Fenriz Registrierter Benutzer

    Im Board seit:
    10.04.05
    Zuletzt hier:
    28.03.11
    Beiträge:
    61
    Ort:
    Nahe Stuttgart
    Zustimmungen:
    0
    Kekse:
    10
    Erstellt: 27.08.05   #9
    @Agent Orange
    Wie billig ist das denn bitte von Kreator- Tormentor geklaut?!
     
  10. ThrashMetal

    ThrashMetal Threadersteller Registrierter Benutzer

    Im Board seit:
    05.05.05
    Zuletzt hier:
    14.11.05
    Beiträge:
    297
    Zustimmungen:
    0
    Kekse:
    34
    Erstellt: 27.08.05   #10
    Also ich sag mal so, Das Tuning sollte man immer angeben,weil sonst kann man echt lange raten :D

    @ AgentOrange

    Ich würde mal sagen:


    Spur 1

    E||--------------------------|-------------------------|--------------------|
    B||--------------------------|-------------------------|--------------------|
    G||--------------------------|-------------------------|--------------------|
    D||--------------------------|-------------------------|--------------------|
    A||--7-----------------------|--10----12----7----------|--------------------|
    E||--5--5--5--5--5--5--5--5--|--8-----10----5----5--5--|--5--5--5--5--5--5--|


    -----------||
    -----------||
    -----------||
    -----------||
    --5--7--5--||
    --3--5--3--||


    So in etwa
     
  11. AgentOrange

    AgentOrange Mod Emeritus Ex-Moderator

    Im Board seit:
    16.04.04
    Zuletzt hier:
    6.12.16
    Beiträge:
    9.769
    Ort:
    Heidelberg
    Zustimmungen:
    353
    Kekse:
    7.549
    Erstellt: 27.08.05   #11


    Das sollte ich dafür erstmal kennen :) Das is eher im Kill ´em all-style als irgendwas von Kreator, das alte zeug von denen find ich sch... weniger gut ;)


    @Thrashmetal:

    Jo :) Auch wenn ichs anders spiel (auffer A-saite), aber is im prinzip richtig ;)
     
  12. ThrashMetal

    ThrashMetal Threadersteller Registrierter Benutzer

    Im Board seit:
    05.05.05
    Zuletzt hier:
    14.11.05
    Beiträge:
    297
    Zustimmungen:
    0
    Kekse:
    34
    Erstellt: 27.08.05   #12
  13. hasenfreund

    hasenfreund Gesperrter Benutzer

    Im Board seit:
    13.08.05
    Zuletzt hier:
    13.09.05
    Beiträge:
    143
    Zustimmungen:
    0
    Kekse:
    10
    Erstellt: 27.08.05   #13
    Wie könnt ihr hier alle eure Beiträge löschen? Wie geht das? ...ich find dat net.
     
  14. jens2901

    jens2901 Registrierter Benutzer

    Im Board seit:
    18.08.03
    Zuletzt hier:
    2.06.14
    Beiträge:
    1.167
    Zustimmungen:
    0
    Kekse:
    171
    Erstellt: 27.08.05   #14
    naja, die wurden wohl auch eher gelöscht, von lennynero. der fand die wohl nicht so gut. nichts für ungut, lieber mod :)
     
  15. AgentOrange

    AgentOrange Mod Emeritus Ex-Moderator

    Im Board seit:
    16.04.04
    Zuletzt hier:
    6.12.16
    Beiträge:
    9.769
    Ort:
    Heidelberg
    Zustimmungen:
    353
    Kekse:
    7.549
    Erstellt: 27.08.05   #15
    Meins hab ich selbst gelöscht ;)


    Und die waren einfach nur unpassend weil total ot ...
     
  16. Fenriz

    Fenriz Registrierter Benutzer

    Im Board seit:
    10.04.05
    Zuletzt hier:
    28.03.11
    Beiträge:
    61
    Ort:
    Nahe Stuttgart
    Zustimmungen:
    0
    Kekse:
    10
    Erstellt: 27.08.05   #16
    @Agent Orange
    Ich weiß ist zwar OT aber hier ist Tormentor.(siehe Archiv)

    Ich weiß nicht ob ich das hier wegen urheberrechten posten darf aber ich versuchs mal
     

    Anhänge:

  17. AgentOrange

    AgentOrange Mod Emeritus Ex-Moderator

    Im Board seit:
    16.04.04
    Zuletzt hier:
    6.12.16
    Beiträge:
    9.769
    Ort:
    Heidelberg
    Zustimmungen:
    353
    Kekse:
    7.549
    Erstellt: 28.08.05   #17
    Nein, darfst du eigentlich nicht ;)


    Aber klingt echt ähnlich, is nur schneller und die chords auffer E-saite sind soweit ichs hör G-F-G und net G-A-G. Oder so ähnlich ^^
     
Die Seite wird geladen...

mapping