Erweiterung der Pentatonik I nach unten + oben , II nach unten + oben

von SpLiNtEr, 16.05.04.

  1. SpLiNtEr

    SpLiNtEr Registrierter Benutzer

    Im Board seit:
    16.05.04
    Zuletzt hier:
    14.11.05
    Beiträge:
    1.225
    Zustimmungen:
    0
    Kekse:
    10
    Erstellt: 16.05.04   #1
    Hallo kann mir jemand eine Seite sagen oder mir die Erweiterung der Pentatonik I nach unten und oben und II nach unten und oben schreiben ?Die verbindungen weiß ich noch nur die 4 genannten hier hab ich wol verschlampt

    Vielen Dank
     
  2. whiplash

    whiplash Registrierter Benutzer

    Im Board seit:
    19.08.03
    Zuletzt hier:
    27.11.16
    Beiträge:
    280
    Zustimmungen:
    0
    Kekse:
    15
    Erstellt: 16.05.04   #2
    Was soll pentatonik I und pentatonik II sein?
     
  3. JOey_jordison

    JOey_jordison Registrierter Benutzer

    Im Board seit:
    20.02.04
    Zuletzt hier:
    5.05.10
    Beiträge:
    145
    Ort:
    München
    Zustimmungen:
    0
    Kekse:
    10
    Erstellt: 16.05.04   #3
    er meint sicher die erweiterte pentatonik aber öffne dieses thema doch in spieltechiken und net in e- gitarren
     
  4. SpLiNtEr

    SpLiNtEr Threadersteller Registrierter Benutzer

    Im Board seit:
    16.05.04
    Zuletzt hier:
    14.11.05
    Beiträge:
    1.225
    Zustimmungen:
    0
    Kekse:
    10
    Erstellt: 17.05.04   #4
    Ich meine die Pentatoniken römisch eins ( I ) und römisch zwei (2 )

    Beispiel für römisch reins :

    e------------------------------------------9----12-------
    h----------------------------------9---12------------
    g------------------------9----11---------------------
    D---------------9---11-------------------------------
    A--------9--11--------------------------------------
    E-9--12----------------------------------------------


    Beispiel römisch zwei :

    e------------------------------------------9--12-------
    h----------------------------------8--12------------
    g------------------------9--11---------------------
    D---------------9--11-------------------------------
    A-------9--12--------------------------------------
    E------------------------------------------------

    so und davon such ich die erweiterungen ( nach oben , unten , und verbindungen ) hoffe das hat jetzt jeder kapiert =)
     
  5. Luc

    Luc Registrierter Benutzer

    Im Board seit:
    18.08.03
    Zuletzt hier:
    3.12.16
    Beiträge:
    460
    Ort:
    Wolfsburg
    Zustimmungen:
    26
    Kekse:
    195
    Erstellt: 17.05.04   #5
    Ich glaube du meinst die verschiedenen Pattern. Schau mal hier ... www.lucguitar.de Lessons online... oder planet-guitar.net oder justchords.com (oder de ... weiss nicht so genau..) :rolleyes:
     
  6. Hans_3

    Hans_3 High Competence Award HCA

    Im Board seit:
    09.11.03
    Beiträge:
    16.142
    Zustimmungen:
    1.118
    Kekse:
    49.592
    Erstellt: 17.05.04   #6
    Am besten, du erarbeitest dir die Erweiterungen selbst: Blatt Papier, Griffbett aufzeichnen und Töne eintragen. Der Lerneffekt ist einfach besser und gratis gibt's ein Erfolgserlebnis dazu. Dazu musst du dir die Tonnamen des ersten Beispiels aufschreiben und die Töne dann überall auf dem Griffbrett lokalisieren.
     
Die Seite wird geladen...

mapping