Evanescence tabs

von matze0123, 16.07.04.

  1. matze0123

    matze0123 Guest

    Kekse:
    0
    Erstellt: 16.07.04   #1
    Hi,

    http://www.line6.com/spiderII/hear.html

    wenn ihr da nun auf ben moody klickt, kommt ja nen video. Als 3. kommt my immortal. Könnt ihr mir die tabs dazu geben was ben moody da in dem kurzem video ausschnitt spielt? Ich hatte schon 2 tabs gefunden, aber die stimmten mit denen auf dem video nicht überein. Könnt ihr mir da helfen?
     
  2. symbolic

    symbolic Mod Emeritus Ex-Moderator

    Im Board seit:
    30.04.04
    Zuletzt hier:
    8.08.11
    Beiträge:
    1.860
    Ort:
    Thueringen
    Zustimmungen:
    3
    Kekse:
    671
    Erstellt: 16.07.04   #2
    Direkt zu dem Video? Hm...denke eher weniger dass du dazu Tabs findest...ansonsten schaust halt mal allgemein unter Evanescence Tabs...
     
  3. matze0123

    matze0123 Threadersteller Guest

    Kekse:
    0
    Erstellt: 16.07.04   #3
    jup direkt zu dem video. Hm, hab ja schon unter evanescence my immortal tabs geguckt, aber da weiss ich halt nicht was ben moody da gerade genau in dem kruzen video spielt
     
  4. Little_Raven

    Little_Raven Registrierter Benutzer

    Im Board seit:
    20.08.03
    Zuletzt hier:
    28.04.10
    Beiträge:
    1.142
    Zustimmungen:
    2
    Kekse:
    1.168
    Erstellt: 16.07.04   #4
    Video kann ich mir nicht angucken. Hören kann ich es schon...
    Also ich weiß ja nicht wie lange du dich schon mit Musik beschäftigst, aber das rauszuhören ist alles andere als schwer....

    So bin ich...

    e|----------------------------------------------------------------
    B|---------------------------------------------------------------
    G|--------2--xx-2--2----x-------2-----x-x-x-2--2---x------2-----
    D|--------2--xx-2--2----x-------2-----x-x-x-2--2---x------2-----
    A|--------0--xx-0--0----x-3~~--0-----x-x-x-0--0---x------0-----
    E|-///////3---------------------------------------------3~~------

    e|---------------------------------------------------------------------
    B|---------------------------------------------------------------------
    G|-x-x-x---------x-x-x-------------------2--2----x------2------x-x-x--2-
    D|-x-x-x-5--5----x-x-x-5--5----x--x---x--2--2---x------2------x-x-x--2-
    A|-x-x-x-3--3----x-x-x-5--5-----x-x---x--0--0---x------0------x-x-x--0-
    E|----------------------3--3----x-x---x------------3~~----------------

    e|---------------------------------------------------------------------
    B|---------------------------------------------------------------------
    G|-2----x------2------x-x-x------------------------------2---5--7~~~-
    D|-2----x------2------x-x-x-3--3----x-x-x--5-(5)---------2---5---7~~~-
    A|-0----x------0------x-x-x-3--3----x-x-x--5-(5)---------0---3---5~~~-
    E|---------3~~-------------1--1----x-x-x--3-(3)------------------------
     
  5. symbolic

    symbolic Mod Emeritus Ex-Moderator

    Im Board seit:
    30.04.04
    Zuletzt hier:
    8.08.11
    Beiträge:
    1.860
    Ort:
    Thueringen
    Zustimmungen:
    3
    Kekse:
    671
    Erstellt: 16.07.04   #5
    Kann mir das Video hier net anschauen...aber versuchs einfachm mal mit vorherigem Beitrag...Video an und dazuspielen...das sollte helfen...allzu schwer sollte es ja nicht sein
     
  6. RAGMAN

    RAGMAN Mod Emeritus - Gitarren Ex-Moderator

    Im Board seit:
    19.08.03
    Zuletzt hier:
    31.08.13
    Beiträge:
    5.410
    Ort:
    zu Hause...
    Zustimmungen:
    12
    Kekse:
    2.538
    Erstellt: 17.07.04   #6
    Das was Du da getabt hast ist glaube ich das Beispiel 4 nach "my immortal". ;)

    RAGMAN
     
  7. matze0123

    matze0123 Threadersteller Guest

    Kekse:
    0
    Erstellt: 17.07.04   #7
    wenn join perry das falsche getabbt hat, kann mir jemand das dann nochmal bitte richtig tabben(also my immortal)?
     
  8. Little_Raven

    Little_Raven Registrierter Benutzer

    Im Board seit:
    20.08.03
    Zuletzt hier:
    28.04.10
    Beiträge:
    1.142
    Zustimmungen:
    2
    Kekse:
    1.168
    Erstellt: 17.07.04   #8
    Stimmt, das kommt davon wenn man immer nur bis zu der gewünschten Stelle vorspult und somit garnicht merkt, dass drei anstatt nur zwei Spielausschnitte davor kommen...

    An Ersteller. Ich habe das direkt so nachgespielt. Bis auf das Ende mit den drei Akkorden, also wird es doch wohl für dich möglich sein alles andere in ein paar Tagen rauszuhören...

    Du schriebst "wenn join perry das falsche getabbt hat, kann mir jemand das dann nochmal bitte richtig tabben(also my immortal)?"

    Was bitte soll das WENN?!?!?!?

    Wenn du den Unterschied zwischen meinem getabbten und deinem gewünschtem nicht hörst, nutzt dir auch kein Tab mehr....
     
  9. RAGMAN

    RAGMAN Mod Emeritus - Gitarren Ex-Moderator

    Im Board seit:
    19.08.03
    Zuletzt hier:
    31.08.13
    Beiträge:
    5.410
    Ort:
    zu Hause...
    Zustimmungen:
    12
    Kekse:
    2.538
    Erstellt: 17.07.04   #9

    hi hi, der war gut :D
     
  10. Hans_3

    Hans_3 High Competence Award HCA

    Im Board seit:
    09.11.03
    Beiträge:
    16.149
    Zustimmungen:
    1.124
    Kekse:
    49.622
    Erstellt: 18.07.04   #10
    Ich hab mir das Video auch mal reingezogen. Kriegen die Line6-Leute eigentlich keine besseren Gitarristen für ihr Video? Was der Typ da spielt ist ja mehr als dürftig, um einen Amp vorzuführen. Und klingen tut das auf dem Stream wie Sau.
     
  11. luv sammY

    luv sammY Registrierter Benutzer

    Im Board seit:
    11.05.04
    Zuletzt hier:
    18.09.05
    Beiträge:
    523
    Zustimmungen:
    0
    Kekse:
    10
    Erstellt: 18.07.04   #11

    hab ich mir auch gedacht :) dafuer war ich von slipknot angetan.. is kewl zu spielen was er da macht..
     
Die Seite wird geladen...

mapping