Extrabreit Polizisten

von velvetunderground, 07.04.08.

  1. velvetunderground

    velvetunderground Registrierter Benutzer

    Im Board seit:
    19.03.04
    Zuletzt hier:
    3.12.16
    Beiträge:
    108
    Zustimmungen:
    2
    Kekse:
    10
    Erstellt: 07.04.08   #1
    moin
    brauche mal hilfe bei diesem stück.... Polizisten von Extrabreit

    was ich schon weiß ist das der bass H und G in der stophe und D und C im refrain spielt

    aber was machen die beiden gitarren
    kennt jemand das stück und kann mir weiterhelfen?

    mfg
    rene
     
  2. brinke

    brinke Registrierter Benutzer

    Im Board seit:
    15.11.05
    Zuletzt hier:
    8.12.16
    Beiträge:
    273
    Ort:
    Wolfsburg
    Zustimmungen:
    88
    Kekse:
    2.885
    Erstellt: 07.04.08   #2
    Dir kann geholfen werden:


    der Zwischenteil geht ungefähr so (Die Betonung bitte selber raushören):

    Gitarre 1
    d--------------------------------
    a-------------9-------------5-----
    e-----5--7-----------5--3------

    Gitarre 2
    e-------------------------------
    h-------------8-x-x--10--x----
    g---11-x-x---7-x-x---9--x----
    d----9-x-x---------------------
    a-------------------------------
    e-------------------------------


    Refrain:

    Gitarre 1:
    e-----------------------------------------
    h-----------------------------------------
    g----7------------------------5----------
    d----7------------------------5----------
    a----5------------------------3----------
    e-----------------------------------------

    Gitarre 2:
    e------------------------------------------
    h----7---------8--7--8-------8----5-----
    g----7---------7--7--7-------5----5-----
    d-----------------------------------------
    a-----------------------------------------
    e-----------------------------------------



    Der Basslauf geht folgendermaßen:
    d----------------------------------------
    a----0---2-2-2-2-------0---------------
    e---------------------------3-3-3-3-----

    Im Refrain wird nur D und C gespielt (wie Gitarre 2)
     
  3. brinke

    brinke Registrierter Benutzer

    Im Board seit:
    15.11.05
    Zuletzt hier:
    8.12.16
    Beiträge:
    273
    Ort:
    Wolfsburg
    Zustimmungen:
    88
    Kekse:
    2.885
    Erstellt: 07.04.08   #3
    Solo:

    e-------------------------------------------------------------------------------
    h-------------------------------------------------------------------------------
    g-------------------------------------------------------------------------------
    d--------------------------------------------33------------------------444444
    a---2--4-5-4-0-------2--4-5 4-0-------33---33------5-5-4-0-0-2--222222
    e----------------3-----------------1--11---------------------------------------
     
  4. velvetunderground

    velvetunderground Threadersteller Registrierter Benutzer

    Im Board seit:
    19.03.04
    Zuletzt hier:
    3.12.16
    Beiträge:
    108
    Zustimmungen:
    2
    Kekse:
    10
    Erstellt: 07.04.08   #4
    @ brinke
    vielen dank
    hast mir sehr weitergeholfen :-)
     
Die Seite wird geladen...

mapping