Farin Urlaub Bassline

von luop2000, 24.06.07.

  1. luop2000

    luop2000 Registrierter Benutzer

    Im Board seit:
    29.01.07
    Zuletzt hier:
    15.11.13
    Beiträge:
    32
    Ort:
    Burgdorf
    Zustimmungen:
    0
    Kekse:
    195
    Erstellt: 24.06.07   #1
    Moin zusammen!

    Ich wollte mal fragen, ob jemand Noten/Tabs zu der Bassline von "Der ziemlich okaye Popsong" von Farin Urlaub hat. Ich habe mich schon ziemlich lange im Internet umgeschaut und doch nichts gefunden. Afaik ist es auch ein B-Seiten-Song.

    Oder ist eventuell jemand imstande das rauszuhören bzw. genau zu beobachten und aufzuschreiben. Hier ist nettes Video von dem Part: http://www.youtube.com/watch?v=4gztKzTU3B0

    Viele Grüße,

    Luop2000
     
  2. Reki

    Reki Registrierter Benutzer

    Im Board seit:
    24.09.06
    Zuletzt hier:
    5.05.11
    Beiträge:
    153
    Ort:
    Heidelberg
    Zustimmungen:
    0
    Kekse:
    540
    Erstellt: 29.06.07   #2
    Da es ein Video dazu gibt wäre es doch sogar möglich, sich die Line "rauszugucken", das heißt zu schauen, was Farin da spielt, oder? :confused:
     
  3. luop2000

    luop2000 Threadersteller Registrierter Benutzer

    Im Board seit:
    29.01.07
    Zuletzt hier:
    15.11.13
    Beiträge:
    32
    Ort:
    Burgdorf
    Zustimmungen:
    0
    Kekse:
    195
    Erstellt: 30.06.07   #3
    Die Qualität ist halt sehr weit runtergeschraubt und es ist sehr schwer, da etwas zu erkennen und im Raushören bin ich nicht wirklich gut. Werd wohl noch mal gründlich nach Tabs suchen müssen...

    Viele Grüße,

    Luop2000
     
  4. Reki

    Reki Registrierter Benutzer

    Im Board seit:
    24.09.06
    Zuletzt hier:
    5.05.11
    Beiträge:
    153
    Ort:
    Heidelberg
    Zustimmungen:
    0
    Kekse:
    540
    Erstellt: 01.07.07   #4
    Falls du etwas findest bitte heir reinschreiben oder gleich PM an mich ;)
    Wäre dir sehr verbunden
     
  5. Ryknow

    Ryknow Registrierter Benutzer

    Im Board seit:
    18.01.06
    Zuletzt hier:
    18.08.15
    Beiträge:
    4.640
    Ort:
    Zuhause
    Zustimmungen:
    730
    Kekse:
    10.700
    Erstellt: 01.07.07   #5
    Hast ja Glück das ich immer mitlese hier...hab so ziemlich jeden FU Song getabbt...wie auch den hier...bloss ich seh gerad, dass ich noch nicht fertig bin...egal...sollte vielleicht erstma reichen...

    Artist: Farin Urlaub
    Song: Ziemlich okaye Popsong
    Album: unreleased
    Tabbed by: myself =) ryknow@gmx.de
    Tuning: E Flat Eb Ab Db Gb

    p Pull off
    h Hammer on
    X muted


    Part 1
    Gb---------------------------------------------------------------------------------
    Db-------/10---------------------8-10-10-10-10-------------------------------------
    Ab-/12-8------/12-8-10--8-8-8h10---------------10-10-10-10-12-12-12-12-8-8-8-8-10--
    Eb---------------------------------------------------------------------------------

    Part 2 x2
    Gb---------------------------------|------------------------------------
    Db-----0-2-3-5-5-7-5-3-3-0-3-3-2-0-|-----0-2-3-------------3---3-3-2-0--
    Ab-3-3-----------------------------|-3-3--------------------------------
    Eb---------------------------------|-----------3-3-5-3-1-1---1----------
    cont.
    Gb-----------------------------------
    Db-----0-2-3-5-5-7-5-3-3-0-3-3-2-0---
    Ab-3-3-----------------------------3-
    Eb-----------------------------------

    Part 3 x2
    Gb----------------------
    Db----------------------
    Ab-----------3-3-------
    Eb-5-5-X1-1-X-----X3-3--

    Part 4 x2
    Gb--------------------------------------------------------
    Db--------------------------------------------------------
    Ab-3-3-33333-335-------------5-5-55555-557----------------
    Eb---------------3-3-3333-33---------------1-1-11111-111--
     
  6. Wikinger

    Wikinger Registrierter Benutzer

    Im Board seit:
    04.01.05
    Zuletzt hier:
    30.11.16
    Beiträge:
    761
    Ort:
    Frankfurt a.M.
    Zustimmungen:
    131
    Kekse:
    3.216
    Erstellt: 01.07.07   #6
    Hab mal das, was er im Video spielt grob als gp4 getabbt, siehe Anhang.

    Edit: Okay, Ryknow war schneller .. hab beim Tabben das Antwortfenster schon offen gehabt :D
     

    Anhänge:

  7. luop2000

    luop2000 Threadersteller Registrierter Benutzer

    Im Board seit:
    29.01.07
    Zuletzt hier:
    15.11.13
    Beiträge:
    32
    Ort:
    Burgdorf
    Zustimmungen:
    0
    Kekse:
    195
    Erstellt: 14.08.07   #7
    JIppie!!! Sry, ich hatte schon die Hoffnung verloren und nicht mehr in diesen Thread geguckt. Ein ganz dickes Dankeschön an euch!

    Viele Grüße,

    Luop2000
     
Die Seite wird geladen...

mapping