favourite appregios?

von chewbacca87, 09.01.07.

  1. chewbacca87

    chewbacca87 Registrierter Benutzer

    Im Board seit:
    07.11.06
    Zuletzt hier:
    10.03.09
    Beiträge:
    73
    Ort:
    Gronau
    Zustimmungen:
    0
    Kekse:
    31
    Erstellt: 09.01.07   #1
    Hy der Titel spricht eigentlich für sich, mir geht’s um eure Lieblings Appregios b.z.w. Lieblings Sweeps, die man einfach immer wenn man zur Gitarre greift zum besten geben muss, oder die sich einfach so geil anhören(auf Platte oder wo auch immer) das dir jedes Mal einer abgeht wenn sie dir zu Ohren kommen.
     
  2. Yberion

    Yberion Registrierter Benutzer

    Im Board seit:
    22.06.06
    Zuletzt hier:
    26.08.11
    Beiträge:
    170
    Zustimmungen:
    0
    Kekse:
    37
    Erstellt: 09.01.07   #2
    Mir gefällt das Arpeggio im Mittelteil von "Master of Puppets" gut.
     
  3. Surtr

    Surtr Registrierter Benutzer

    Im Board seit:
    06.01.04
    Zuletzt hier:
    28.08.10
    Beiträge:
    294
    Zustimmungen:
    1
    Kekse:
    306
    Erstellt: 10.01.07   #3
    Ist zwar nich gesweept aber: Die Arpeggios vor dem Solo in Alcatrazz - Too young to die, too drunk to live
     
  4. cosm

    cosm Registrierter Benutzer

    Im Board seit:
    08.11.05
    Zuletzt hier:
    31.07.10
    Beiträge:
    16
    Zustimmungen:
    0
    Kekse:
    10
    Erstellt: 10.01.07   #4
    Between the buried and me - Selkies ... die letzten zwei minuten:eek:
     
  5. Quirrel

    Quirrel Registrierter Benutzer

    Im Board seit:
    05.09.06
    Zuletzt hier:
    27.02.10
    Beiträge:
    434
    Zustimmungen:
    0
    Kekse:
    146
    Erstellt: 10.01.07   #5
    Arpeggios from Hell is ql, wobei ich leider nur tabs vom anfang hab :/
    Un natürlich der anfang von no boundaries

    So long
     
  6. B?rnikklsson

    B?rnikklsson Registrierter Benutzer

    Im Board seit:
    19.07.05
    Zuletzt hier:
    22.09.08
    Beiträge:
    86
    Ort:
    Linz
    Zustimmungen:
    1
    Kekse:
    10
    Erstellt: 10.01.07   #6
    mich wundert, dass es noch keiner vor mir geschrieben hat:
    die SERRANA arps :great:
     
  7. Stoli

    Stoli Registrierter Benutzer

    Im Board seit:
    25.04.05
    Zuletzt hier:
    6.04.15
    Beiträge:
    1.351
    Ort:
    Amberg
    Zustimmungen:
    0
    Kekse:
    1.399
    Erstellt: 10.01.07   #7
    Serrana, Atitudes und die Sweep-Section von RacerX - Scarified ;)
     
  8. Kosai

    Kosai Registrierter Benutzer

    Im Board seit:
    14.05.06
    Zuletzt hier:
    18.02.14
    Beiträge:
    575
    Ort:
    Hagen
    Zustimmungen:
    4
    Kekse:
    194
    Erstellt: 10.01.07   #8
    den find ich ganz geil ;)

    ----------7h10t15p10p7---------
    --------8-----------------8--------
    ------7---------------------7------
    ----9-------------------------9----
    -10----------------------------10-
    ------------------------------------
     
  9. Surtr

    Surtr Registrierter Benutzer

    Im Board seit:
    06.01.04
    Zuletzt hier:
    28.08.10
    Beiträge:
    294
    Zustimmungen:
    1
    Kekse:
    306
    Erstellt: 11.01.07   #9
    Meinst du die am Ende von Scarified? Oder Die Stellen nach den Bassbreaks? Die sind nähmlich nicht gesweept, aber extrem geil. Klingt allerdings auch nur zweistimmig so gut.
     
  10. Stoli

    Stoli Registrierter Benutzer

    Im Board seit:
    25.04.05
    Zuletzt hier:
    6.04.15
    Beiträge:
    1.351
    Ort:
    Amberg
    Zustimmungen:
    0
    Kekse:
    1.399
    Erstellt: 11.01.07   #10
  11. SteveVai

    SteveVai Registrierter Benutzer

    Im Board seit:
    08.12.05
    Zuletzt hier:
    16.11.14
    Beiträge:
    1.295
    Ort:
    Wien
    Zustimmungen:
    16
    Kekse:
    3.061
    Erstellt: 11.01.07   #11
    steve vai - die gesweepten crossroads arpeggios
    steve vai - freak show excess , zum schluß wird dort ordentlich gesweept
    dream theater - solo aus under a glass moon
    mab - no boundaries
     
  12. pta1611

    pta1611 Registrierter Benutzer

    Im Board seit:
    05.09.06
    Zuletzt hier:
    5.10.07
    Beiträge:
    116
    Ort:
    Bruckneudorf/AT
    Zustimmungen:
    0
    Kekse:
    35
    Erstellt: 12.01.07   #12
    Das Intro von "My Curse", Killswitch Engage. Dauert zwar nicht sehr lange, aber ist genial. :great:
     
  13. mark79er

    mark79er Registrierter Benutzer

    Im Board seit:
    12.01.06
    Zuletzt hier:
    22.04.16
    Beiträge:
    563
    Zustimmungen:
    0
    Kekse:
    197
    Erstellt: 12.01.07   #13
    bei surrounded von dream theater gibts doch gegen ende so ein hammergeiles arpeggio. kennt ihr das ? da denkt man , man erlebt ein akustischen orgasmus.
     
  14. deXta

    deXta Registrierter Benutzer

    Im Board seit:
    24.02.05
    Zuletzt hier:
    9.12.16
    Beiträge:
    1.040
    Ort:
    Bochum
    Zustimmungen:
    128
    Kekse:
    1.613
    Erstellt: 12.01.07   #14
    beim song motor man von racer x gibts bei 0:53 auch ein sau geiles arpeggio! :great:
     
  15. It's fun to lose

    It's fun to lose Registrierter Benutzer

    Im Board seit:
    07.01.06
    Zuletzt hier:
    15.07.08
    Beiträge:
    323
    Ort:
    Nürnberg
    Zustimmungen:
    2
    Kekse:
    244
    Erstellt: 12.01.07   #15
    Cmaj7 ist auch schön!
     
  16. unfassbaaar

    unfassbaaar Registrierter Benutzer

    Im Board seit:
    08.12.05
    Zuletzt hier:
    23.07.15
    Beiträge:
    339
    Zustimmungen:
    0
    Kekse:
    1.460
    Erstellt: 13.01.07   #16
    -----------------12-17-12---------------------------------------------------
    --------------13----------13------------------------------15----------------
    -----------14----------------14---------------------13-16----16-13----------
    --------14----------------------14------------12-15----------------15-12----
    --12-15----------------------------15---11-14----------------------------14-
    ----------------------------------------------------------------------------


    -------------------------------------------------------12-15-12-------------
    --------------------15------------------------------14----------14----------
    --------------13-16----16-13---------------------14----------------14-------
    --------12-15----------------15-12------------14----------------------14----
    --11-14----------------------------14---12-16----------------------------16-
    ----------------------------------------------------------------------------


    -----------------13-17-13------------------------------------12----------------
    --------------15----------15------------------------------13----13-------------
    -----------14----------------14------------------------14----------14----------
    --------15----------------------15------------------14----------------14-------
    --12-17----------------------------17------12-14-15----------------------15-12-
    ----------------------------------------12-------------------------------------


    --------------------14---------------------------12----12-16-12-16-20-19-16----
    -----------------16----16---------------------12----12-------------------------
    -----------14-16----------16-14------------13----------------------------------
    -----13-16----------------------16-13---14-------------------------------------
    --14---------------------------------------------------------------------------
    -------------------------------------------------------------------------------


    --17-12-----------------
    --------13--------------
    -----------14-----------
    --------------14--------
    -----------------15-12--
    ------------------------

    auch ziemlich cool, aber recht anspruchsvoll..


    EDIT:

    -17-12----------12- -15-12---------12-
    -------13----13---- --------13---13----
    ----------14--------------------14------

    -15-12-------12--------15-13----------13--
    -------12--12------------------13---13-----
    ---------12------------------------14--------

    diese motive kann man eigentlich büers ganze griffbrett variieren..ziemliche coole sache :)
     
  17. Surtr

    Surtr Registrierter Benutzer

    Im Board seit:
    06.01.04
    Zuletzt hier:
    28.08.10
    Beiträge:
    294
    Zustimmungen:
    1
    Kekse:
    306
    Erstellt: 14.01.07   #17
    Ah ok. Die sin schön, aber der Teil direkt danach ist eigentlich das geilste an dem Stück :-)

    Noch was: Die Moll Arpeggios im Andante aus Yngwies Concerto suite. (T 35)
     

    Anhänge:

  18. Gammelpeter

    Gammelpeter Registrierter Benutzer

    Im Board seit:
    09.07.05
    Zuletzt hier:
    1.06.15
    Beiträge:
    2.593
    Ort:
    Freiburg/Stuttgart/Konstanz
    Zustimmungen:
    115
    Kekse:
    4.278
    Erstellt: 14.01.07   #18
    appregios...... oh mann....
    du weisst nicht mal wie das richtig geschrieben wird.......
     
  19. kashmir

    kashmir Registrierter Benutzer

    Im Board seit:
    07.08.06
    Zuletzt hier:
    29.10.10
    Beiträge:
    190
    Ort:
    Gelnhausen
    Zustimmungen:
    0
    Kekse:
    129
    Erstellt: 14.01.07   #19
    Lern erstmal Spielen!!


    Also sowas echt! :screwy: :rolleyes:


    Topic:

    Zählt Rainbows Kill The King auch als richtiges Arpeggio? :great:
     
  20. msoada

    msoada Mod Emeritus Ex-Moderator

    Im Board seit:
    08.05.05
    Zuletzt hier:
    21.09.15
    Beiträge:
    4.498
    Ort:
    Belgrad
    Zustimmungen:
    62
    Kekse:
    5.984
    Erstellt: 14.01.07   #20
    @ unfassbaar

    Die 2. die du gepostet hast sind auch meine Lieblings und sind gut zum "warm" werden.
     
Die Seite wird geladen...

mapping