Frage zu American Idiot Solo

von Penetranzbestie, 21.05.05.

  1. Penetranzbestie

    Penetranzbestie Registrierter Benutzer

    Im Board seit:
    11.02.05
    Zuletzt hier:
    30.01.10
    Beiträge:
    93
    Zustimmungen:
    0
    Kekse:
    32
    Erstellt: 21.05.05   #1
    hier mal ein teil vom solo aus american idiot von green day

    --------------------------------|------------------------|
    --------------------------------|------------------------|
    --10----10--10--10--10--10--10--|----10----10--8----6----|
    --------------------------------|------------------------|
    --8-----8---8---8---8---8---8---|----8-----8---6----4----|
    --------------------------------|------------------------|



    --------------------------|---------------------|-------------------------|
    --------------------------|---------------------|-------------------------|
    --8----8--8--8--8--8--10--|----8----6----5------|--3----3--3--3--3--5--6--|
    --------------------------|---------------------|-------------------------|
    --6----6--6--6--6--6--8---|----6----4----3------|-------------------------|
    --------------------------|---------------------|-------------------------|



    ----------------------|---------------------------|--8----------------------|
    ----------------------|--------9--------11--------|-----------11-----9~-----|
    ----5----3----3----3/-|--8--8-----8--8------8--8--|-----8--8------8---------|
    ----------------------|---------------------------|-------------------------|
    ----------------------|---------------------------|-------------------------|
    ----------------------|---------------------------|-------------------------|


    könntet ihr mir mal sagen mit welchem fingern ihr die letzten beiden takte spielen würdet? frag mich vor allem wie ich die 8 auf der e-saite spielen soll. so quasi als barre über die gbe seiten wobei ich eben nur die e-saite spiele?
    außerdem würd ich gern wissen ob ihr euren finger von der 8 auf g-saite abheben würdet oder ob das bei der geschwindikkeit unnötig wäre.

    danke im voraus
     
  2. McFlash99

    McFlash99 Registrierter Benutzer

    Im Board seit:
    20.04.04
    Zuletzt hier:
    3.07.12
    Beiträge:
    301
    Ort:
    Frankfurt
    Zustimmungen:
    0
    Kekse:
    53
    Erstellt: 21.05.05   #2
    Ich spiels immer so, dass der Zeigefinger auf der 8 die ganze Zeit liegen bleibt. Die 8 auf der hohen e-Saite spiele ich dann auch mit Zeigefinger im Barre.
     
  3. Arrok

    Arrok Registrierter Benutzer

    Im Board seit:
    16.05.05
    Zuletzt hier:
    29.05.05
    Beiträge:
    3
    Zustimmungen:
    0
    Kekse:
    10
    Erstellt: 21.05.05   #3
    Also ich würde auch barré greifen, dann aber auf jeden fall immer wenn du zwischen den saiten wechselst den fingernur auf die saite runterdrücken, wo du auch spielen möchtest,verstehst, damit das nicht nur ein reines gerausche wird..... Beispiel letzter Takt: also vom c auf der hohen e-saite (8) zum dis auf der g-saite (8) usw...;
     
  4. msoada

    msoada Mod Emeritus Ex-Moderator

    Im Board seit:
    08.05.05
    Zuletzt hier:
    21.09.15
    Beiträge:
    4.498
    Ort:
    Belgrad
    Zustimmungen:
    62
    Kekse:
    5.984
    Erstellt: 22.05.05   #4
    ganz simpel Barre drauf legen, weil den rest kannst du dann ja mit deinen verbleibenden Fingern spielen, aber mal ehrlich das solo ist echt pisse einfach.
     
  5. Unwissender

    Unwissender Registrierter Benutzer

    Im Board seit:
    30.06.04
    Zuletzt hier:
    1.12.05
    Beiträge:
    16
    Zustimmungen:
    0
    Kekse:
    10
    Erstellt: 22.05.05   #5
    ich spiel da eigentlich immer den 13. bund auf der h-saite mit meinem kleinen finger. etwas gewöhnungsbedürftig, weil man den kleinen finger ziemlich weit abspreizen muss, aber man gewöhnt sich sehr schnell dran!

    MfG
     
Die Seite wird geladen...

mapping