Frusciante - Regret

von p0wl, 02.05.07.

  1. p0wl

    p0wl Registrierter Benutzer

    Im Board seit:
    20.10.06
    Beiträge:
    508
    Ort:
    Stuttgart/Tübingen
    Zustimmungen:
    0
    Kekse:
    346
    Erstellt: 02.05.07   #1
    hallo zusammen.
    ich versuch grade mein glück an regret von john frusciante, allerdings hab ich ein kleines problem. sind folgende tabs nicht ganz korrekt oder bin ich einfach zu blöd, sie zu zu spielen, dass es genauso klingt, wie im original:

    http://www.ultimate-guitar.com/tabs/j/john_frusciante/regret_tab.htm

    es geht um den abschnitt ganz rechts oben
     
  2. Stoney

    Stoney Registrierter Benutzer

    Im Board seit:
    17.11.06
    Zuletzt hier:
    3.12.15
    Beiträge:
    570
    Ort:
    .at
    Zustimmungen:
    37
    Kekse:
    3.746
    Erstellt: 11.05.07   #2
    hm ... wenn du den übergang vom C aufs Am meinst im intro, dann guck dir doch die hier an:

    Code:
    Intro
    
    |----------------------------------|
    |---------1---------------1--------|
    |-------0---0-----------0---0------|
    |-----2-------2-------2-------2----|
    |-3-3-----------3-3-3-----------3--|
    |----------------------------------|
    
    |------------------------------0---|
    |---------1--------------1---------|
    |-------0---0----------0---0-------|
    |-----2-------2------2-------2-----|
    |-3-3-----------3-3-3--------------|
    |----------------------------------|
    
    |---------0---------------0--------|
    |-------1---1-----------1---1------|
    |-----2---------------0------------| x 2
    |---2---------------2--------------|
    |-0-----------0-2-3-----------3-2--|
    |----------------------------------|
    
    |----------------------------------|
    |-------3----------------1---------|
    |----------------------2---2-------|
    |-----5---5----------3-------3-----|
    |---5-------5------------------3---|
    |-3-----------3-2-1--------------1-|
    
    |-----0-------0-------0----0---3---|
    |-----1-------1-------1----1---0---|
    |-----2-------2-------2----2---0---|
    |-----2-------2-------2----2---0---|
    |-0-0-0---0-0-0---0-0-0--0-0-2-2---|
    |----------------------------------|
    
    quelle: http://jftab.free.fr/

    oder die hier passen noch besser (mMn)

    Code:
    Introduction:
    I----------------------------------------
    I-------------------1--------------------
    I---------------0-------0----------------
    I-----------2---------------2------------ {X 3 TIMES}
    I---3---3-----------------------3--------
    I----------------------------------------
    
    I----------------------------0------------------0-----
    I-------------------------------------------1-------1-
    I---------------0---------0-------------2-------------
    I-----------2---------2--------------2----------------
    I---3---3---------------------0-----------------------
    I------------------3----------------------------------
    
    I---------------------------0-------------------------
    I-----------------------1-------1-------------------1-
    I-------------------0----------------------------2----
    I---------------2-----------------------------2-------
    I---0---2---3----------------------3---2---0----------
    I-----------------------------------------------------
    
    I---0-------------------------------0-----------------
    I-------1-----------------------1-------1-------------
    I--------------------------0--------------------------
    I----------------------2------------------------------
    I----------0---2---3-----------------------3---2------
    I-----------------------------------------------------
     
    I-----------------------------------------------------
    I--------------3-----------------------------1--------
    I----------------------------------------2-------2----
    I-----------5-----5------------------3---------------3
    I-------5-------------5-------------------------------
    I---3---------------------3---2---1-------------------
    
    I-------------I
    I-------------I
    I-------------I
    I-------------I   Am
    I----3----0---I 
    I-------------I
    
    quelle: http://www.fretplay.com

    __

    lg st
     
  3. p0wl

    p0wl Threadersteller Registrierter Benutzer

    Im Board seit:
    20.10.06
    Beiträge:
    508
    Ort:
    Stuttgart/Tübingen
    Zustimmungen:
    0
    Kekse:
    346
    Erstellt: 11.05.07   #3
    wow. vielen dank!

    eine frage hätt ich noch: was greif ich da am ende, wo ich a- und d-saite spielen muss?

    edit: stimmen die tabs eigentlich? neulich hab ich jemand gehört, der gemeint hab, wenn man es nicht mit kapo im 1. bund spielen würde, müsste man andere sachen greifen als C und Am
     
  4. Stoney

    Stoney Registrierter Benutzer

    Im Board seit:
    17.11.06
    Zuletzt hier:
    3.12.15
    Beiträge:
    570
    Ort:
    .at
    Zustimmungen:
    37
    Kekse:
    3.746
    Erstellt: 11.05.07   #4
    zu 1:
    ich spiels so:
    am ende des intros nach G komm nochmal die F-Zerlegung und dann spiele ich ein Am

    undgefähr so
    Code:
           Am           G 
    e--------------------3--
    b------1----------1--3--
    g------2----------2--4--
    d------2----------2--5--
    a-0-0------0--0-0----5--
    e--------------------3--
    
    und dann gleich weiter mit dem C -Chord und singen^^

    zu 2:

    ich spiels ohne capo - also standart-tunig - und so ists auch auf dem "shadows" album oben

    wenn du aber denn die capotöne "ohne" capo im ersten bund spielen willst sind dass deine töne:
    intro:
    C# , Bm ....
     
  5. p0wl

    p0wl Threadersteller Registrierter Benutzer

    Im Board seit:
    20.10.06
    Beiträge:
    508
    Ort:
    Stuttgart/Tübingen
    Zustimmungen:
    0
    Kekse:
    346
    Erstellt: 11.05.07   #5
    ok, danke. aber nochmal zu zweitens, das hab ich nämlich nicht ganz verstanden. ich wills so spielen, wie er es im "original" spielt, ob die akustik oder die normale version ist da ja glaub ich egal, oder? also wenn er es ohne kapo spielt, greif ich dann trotzdem normal C und Am etc... oder was hat es jetzt mit deinem letzten satz auf sich, also C# etc...
     
  6. Stoney

    Stoney Registrierter Benutzer

    Im Board seit:
    17.11.06
    Zuletzt hier:
    3.12.15
    Beiträge:
    570
    Ort:
    .at
    Zustimmungen:
    37
    Kekse:
    3.746
    Erstellt: 14.05.07   #6
    vergiss einfach mal meinn letzten satz - wenn du regret so spiele nwillst wie auf shadowscollidewithpeple, dann ist es ganz normal im standart-tunig! also C, Am, F, G usw ...
     
Die Seite wird geladen...

mapping