Fury in the Slaughterhouse - Won't forget these Day [Tabs]

von bassmann222, 23.05.08.

  1. bassmann222

    bassmann222 Registrierter Benutzer

    Im Board seit:
    23.05.08
    Zuletzt hier:
    13.04.10
    Beiträge:
    1
    Zustimmungen:
    0
    Kekse:
    10
    Erstellt: 23.05.08   #1
    Hallo zusammen,

    brauche Hilfe bei der Basslinie von
    "Won't forget these Days"

    Kann mir jemand die Tabulatur geben

    Vielen Dank
     
  2. luckyluke

    luckyluke Registrierter Benutzer

    Im Board seit:
    29.11.05
    Zuletzt hier:
    1.03.15
    Beiträge:
    353
    Ort:
    Merzig (Saarland)
    Zustimmungen:
    2
    Kekse:
    424
    Erstellt: 29.05.08   #2
    Intro
    G---------------------------------------------------------
    D---------------------------------------------------------
    A---0--0---0-3------------------------------------------
    E----------------3--1--1-/5-3-1--1----/8-8-8--7-7-7--

    Strophe 6 mal oder so...
    G------------------------------------------
    D------------------------------------------
    A------------------3-----------------------
    E---5-3-5--5-3-5-------1-1---1-1-1------

    ... und dann
    G--------------------
    D--------------------
    A-------------------
    E----8--7---5--3----

    Refrain
    |F|C|G|D|
    |F|C|G|G|
    |F|C|G|D|
    |F|C|G|G|
    |G|G|/D|D|

    Bridge:
    G----------------------------------------------------------------------------------
    D----------------------------------------------------------------------------------
    A--------------------3----3-----3----3-5-5---3-5-5-5-3----3-5-3-5-3----------
    E----3-5--3-5-----5----5-----5-------------------------------------------5--3---
     
Die Seite wird geladen...

mapping