gibt es irgendeinen lick den ihr immer anspielt beim probieren von neuen euqipment???

von roastbeef, 22.09.04.

  1. roastbeef

    roastbeef Registrierter Benutzer

    Im Board seit:
    30.11.03
    Zuletzt hier:
    25.07.16
    Beiträge:
    3.424
    Ort:
    Graz
    Zustimmungen:
    72
    Kekse:
    4.088
    Erstellt: 22.09.04   #1
    hi!
    ich wollte mal wissen ob ihr einen oder mehrere kleine licks habt die ihr immer anspielt wenn ihr neues equipment anspielt oder improvisiert?

    ich hab da einen den ich mir irgendwann mal zusammengekleistert habe und seitdem immer anspiele beim probieren von neuen gitarren,tretern oder amps:
    Code:
    -8-5---------------------------------------------
    -----8-5-----------------------------------------
    ----------7b9r7--5--------5--7b9r7--5-----------
    ---------------------7--7--------------7(vibrato)->>>>
    ------------------------7------------------------
    -------------------------------------------------
    
    habt ihr sowas wenn ja? welche!

    würde mich interessieren!
    und ich rede von licks keine master of puppets oder sad but ture riffs! :rolleyes: ;) :great:
     
  2. RAGMAN

    RAGMAN Mod Emeritus - Gitarren Ex-Moderator

    Im Board seit:
    19.08.03
    Zuletzt hier:
    31.08.13
    Beiträge:
    5.410
    Ort:
    zu Hause...
    Zustimmungen:
    12
    Kekse:
    2.538
    Erstellt: 22.09.04   #2
    Code:
    ----------5--7--------7--8--------8--2--------2--0-----------0----------------
    -------5--------5-----------5-----------3-----------1-----1-----1-------------
    ----5--------------5-----------5-----------2-----------2-----------2--0--2-2--
    -7-----------6-----------5-----------2-----------3----------------------------
    ----------------------------------------------------------------------2--0-0--
    ------------------------------------------------------------------------------
    Code:
    |-------------------|-------------------|--------------------|----------------|
    |--------------*----|----------------*--|--------------*-----|-------------*--|
    :--------------x----|----------------x--|--------------x-----|-------------x--:
    :-5---8---10------5-|---8---11--10------|--5---8---10-----8--|---5------------:
    |-5---8---10------5-|---8---11--10------|--5---8---10-----8--|---5------------|
    |-------------------|-------------------|--------------------|---3------------|
    Code:
    e ||---------------------------------------------------------------------------||
    B ||---------------------------------------------------------------------------||
    G ||---------------------------------------------------------------------------||
    D ||---------------------------------------------------------------------------||
    A ||--2---2----/7--------------5-------5-------4---5---4-----------------------||
    E ||--0---0---------6---5------3---0---3---0---2---3---2-----------------------||
    die einzige Möglichkeit ein Gitarre clean und verzerrt fachmännisch zu beurteilen... ;)

    Ragman
     
  3. roastbeef

    roastbeef Threadersteller Registrierter Benutzer

    Im Board seit:
    30.11.03
    Zuletzt hier:
    25.07.16
    Beiträge:
    3.424
    Ort:
    Graz
    Zustimmungen:
    72
    Kekse:
    4.088
    Erstellt: 22.09.04   #3
    na! toll!!! :D
     
  4. MeatMuffin

    MeatMuffin Registrierter Benutzer

    Im Board seit:
    19.08.03
    Zuletzt hier:
    22.06.06
    Beiträge:
    1.353
    Ort:
    Berlin
    Zustimmungen:
    3
    Kekse:
    305
    Erstellt: 22.09.04   #4
    Also garantiert ist immer sowas dabei:

    Code:
    e---------0---------0-------------------------|
    H---------0---------0------15--15-------------|
    G-------------------------b14-b14-12----------|
    D--2-2-------2-2---------------------14-12-14-|
    A--2-2-------2-2------5-7---------------------|
    E--0-0-b3----0-0-b3---3-5---------------------|
    Dann immer unterschiedlich Blues über e, g oder a und keine Ahnung. Ne Menge.
     
  5. Little_Raven

    Little_Raven Registrierter Benutzer

    Im Board seit:
    20.08.03
    Zuletzt hier:
    28.04.10
    Beiträge:
    1.142
    Zustimmungen:
    2
    Kekse:
    1.168
    Erstellt: 22.09.04   #5
    Also im Musikladen spiele ich immer sowas wie du oben geschrieben hast. Nicht weil ich denke, dass ich damit alles Sounds gut zur Geltung bringen kann, sondern weil mir nie was anderes einfällt :)
    Macht aber ja auch nichts. Schließlich kann man das locker über zwei Minuten variieren wenn's sein muss.

    Ich verstehe nicht ganz, was du mit "licks beim improvisieren anspielen" meinst. Ich denke je nach dem ob es die Melodie und der Takt zulässt wird da mit Sicherheit schnell mal das selbe in zwei Liedern vorkommen.

    Ich spiel meistens mehr nach Gefühl, soll heißen dass ich beim improvisieren garnicht an die Tonart denken kann.

    Vergleiche wegen mir das hier
    mit meinen ersten und dritten Beitrag im Jamstripe Thread. (Irgendwo oben auf der ersten Seite im Hörproben forum)

    Igendwas ist bestimmt gleich :)
     
  6. SpLiNtEr

    SpLiNtEr Registrierter Benutzer

    Im Board seit:
    16.05.04
    Zuletzt hier:
    14.11.05
    Beiträge:
    1.225
    Zustimmungen:
    0
    Kekse:
    10
    Erstellt: 22.09.04   #6
    Code:
    --------------------
    -5------------------
    -7^9^7p5--------
    --------------7-5--
    ---------------------
    ---------------------
    
    
     
  7. roastbeef

    roastbeef Threadersteller Registrierter Benutzer

    Im Board seit:
    30.11.03
    Zuletzt hier:
    25.07.16
    Beiträge:
    3.424
    Ort:
    Graz
    Zustimmungen:
    72
    Kekse:
    4.088
    Erstellt: 22.09.04   #7
    naja mit "licks beim improvisieren" meinte ich einfach wenn ihr vorm amp sitzt und dann eben mal ein kleines solo spielt (EUER SOLO) wenn ich nur "poste mal den lick den ihr immer dabei habt" wäre sicher wieder ein metallica solo gekommen!
     
  8. Olly

    Olly Registrierter Benutzer

    Im Board seit:
    23.10.03
    Zuletzt hier:
    3.09.10
    Beiträge:
    257
    Zustimmungen:
    0
    Kekse:
    94
    Erstellt: 22.09.04   #8
    Ich kann ihn selber fast schon ned mehr hören, aber jedesmal wenn ich ne neue Klampfe oder nen Amp teste, sei es beim Kollegen oder in`nem Shop
    automatisieren sich meine Finger und spielen als erstes den Enter Sandman Riff... das nervt mich tierisch loool aber irgendwie gehts ned anners, es ist wie eine Sucht die man nicht überwinden kann.... aber nach dem ersten Lick hab ich s geschafft und ich improvisier mir einen!!! :D
     
  9. MeatMuffin

    MeatMuffin Registrierter Benutzer

    Im Board seit:
    19.08.03
    Zuletzt hier:
    22.06.06
    Beiträge:
    1.353
    Ort:
    Berlin
    Zustimmungen:
    3
    Kekse:
    305
    Erstellt: 22.09.04   #9
    Naja @ Join

    Wenn man hören will, wie die Gitarre wirklich klingt, spielt man ja auch nicht die krassesten Licks rüber. Das ist bloß geprolle. :D
    Da reichen meist schon 2 oder 3 open chords, die man ausklingen lässt und dann noch jede Saite einzeln.

    Das oben, was ich gepostet hab, benutz ich nur an nem ordentlichen Amp um die Pickups der Gitarre zu braten.
     
  10. Godsound

    Godsound Gesperrter Benutzer

    Im Board seit:
    16.08.04
    Zuletzt hier:
    20.10.06
    Beiträge:
    218
    Zustimmungen:
    1
    Kekse:
    10
    Erstellt: 23.09.04   #10
    Ich lass immer meinen Bruder spielen...der kann kein Gitarre spielen...wenn sich trotzdem gut anhört dann muß der Verstärker gut sein ;)
     
  11. Fender

    Fender Registrierter Benutzer

    Im Board seit:
    17.06.04
    Zuletzt hier:
    25.11.16
    Beiträge:
    194
    Ort:
    Zürich
    Zustimmungen:
    1
    Kekse:
    10
    Erstellt: 23.09.04   #11
    :D :great:
     
  12. S?ufer

    S?ufer Registrierter Benutzer

    Im Board seit:
    20.09.04
    Zuletzt hier:
    16.11.04
    Beiträge:
    14
    Zustimmungen:
    0
    Kekse:
    10
    Erstellt: 23.09.04   #12
    Ich spiele immer den lick my pussy
     
  13. yamcanadian

    yamcanadian Registrierter Benutzer

    Im Board seit:
    28.07.04
    Zuletzt hier:
    21.01.07
    Beiträge:
    734
    Ort:
    Paderborn
    Zustimmungen:
    0
    Kekse:
    242
    Erstellt: 23.09.04   #13
    ass-lick-ing ;)
     
Die Seite wird geladen...

mapping