Harmonische Akustik-Licks/Songs

von Leadsound, 18.11.04.

  1. Leadsound

    Leadsound Registrierter Benutzer

    Im Board seit:
    11.07.04
    Zuletzt hier:
    9.09.06
    Beiträge:
    62
    Zustimmungen:
    0
    Kekse:
    10
    Erstellt: 18.11.04   #1
    Hallo Leutz!

    Ich wollte euch fragen, ob ihr mir vielleicht ein paar gute akustische Stücke empfehlen könntet...
    Gemeint sind Songs (Riffs oder Licks), die auf einer akustischen Gitarre, alleine - ohne Begleitung, gut klingen täten.
    Das soll jetzt kein Thread ala "Welche einfachen Sachen kann ich auch ohne E-Gitarre spielen" sein. Ich wollte mich einfach mal nach ein paar guten Songs, Riffs oder Licks erkundigen, die für euch sehr melodiös klingen und die ihr gern hört ... die Schwierigkeit spielt dabei keine große Rolle.

    Der Sinn ist z.B. eine Sammlung von Sachen, die man einfach einem Menschen vorspielen kann und der dann sagt: "Das hört sich super an!"
    Jetzt nicht falsch verstehen! Ich will nicht angeben! Ich möchte bloß andere Menschen unterhalten...

    Zur Veranschaulichung hier ein Beispiel - so wie ich es mir vorstelle! Von Metallica's "To Live Is To Die":

    Code:
    ---------------------|-----------------|-----------------|-------------|
    --0^1--------0^1^0---|--0--------------|-----------------|-------------|
    -------2------------2|-----2-----0-----|--0--------0-----|--0^2--------|
    ----------2----------|-----------------|-----2-----------|-------0-----|
    --0------------------|-----------------|--------2--------|----------0--|
    ---------------------|--3-----3-----3--|--0-----------0--|--1----------|
     
    Am				G				 Em				G
    -----------------|-----------------|-----------------|-----------------|
    --1--------3-----|--3-----0--------|--------------0--|-(0)-------3--0--|
    -----2--------0--|-----------0-----|--0--------0-----|--0--------------|
    --------2--------|-----------------|-----2-----------|-----0-----------|
    --0--------------|-----------------|--------2-----2--|--------2--------|
    -----------------|--3--3--------0--|--0--------------|--3--------------|
    
    Also danke schonmal im Voraus

    MFG
    Leadsound
     
Die Seite wird geladen...

mapping