hat jemand paar noten von anfängerstücken???

von guitarfreak, 21.08.04.

  1. guitarfreak

    guitarfreak Registrierter Benutzer

    Im Board seit:
    20.08.04
    Zuletzt hier:
    11.10.05
    Beiträge:
    7
    Zustimmungen:
    0
    Kekse:
    10
    Erstellt: 21.08.04   #1
    hi leute ich hab mir jetzt endlich mal ne e-gitarre zugelegt und kann auch schon die ersten noten es macht auch richtig spass zu spielen aber ich bräuchte mal ein paar einfache stücke zum spielen damit ich besser werde möglichst mit noten
    danke :rock:
     
  2. RAGMAN

    RAGMAN Mod Emeritus - Gitarren Ex-Moderator

    Im Board seit:
    19.08.03
    Zuletzt hier:
    31.08.13
    Beiträge:
    5.410
    Ort:
    zu Hause...
    Zustimmungen:
    12
    Kekse:
    2.538
    Erstellt: 21.08.04   #2
    Code:
    [SIZE=1]|-17~----15~-----13~------12~\-8h10~----------------8-----|------------------------------|
    |-----------------------------------------------------8b~-|----15--17--18br--17h18p17p15-|
    |------------------------------------/7h10~----7-10-------|------14--14------------------|
    |---------------------------------------------------------|------------------------------|
    |---------------------------------------------------------|------------------------------|
    |---------------------------------------------------------|------------------------------|
    
    |--------15b~r--13-15-13---------------|-------------------------------------------AH----|
    |-17~--------------------15-15~---15~\-|----bar vibrato------------------------AH---8----|
    |--------------------------------------|----AH------AH-----------------------7-10-7---7--|
    |--------------------------------------|----10~-----10~-----------------7-10-------------|
    |--------------------------------------|-8-------8------8----10----8-10------------------|
    |--------------------------------------|------------------10----10-----------------------|
    
    |--------|10----8------8------8--------------------------------|-10--12--13--12~-|
    |--AH-8b~|---10---8h10---8h10-----8--------8----8----8------8b-|---10--10--10----|
    |--10----|----------------------7---7-10-7--------10---7-10----|-----------------|
    |--------|-----------------------------------------------------|-----------------|
    |--------|-----------------------------------------------------|-----------------|
    |--------|-----------------------------------------------------|-----------------|
    
    |--h13p12p10------------------------------------------------|----------------------------|
    |-----------13p12-13p12-10----------------------------------|----------------------------|
    |--------------------------12p10\9----9h10p9----9brbrbrbr~--|----------------------------|
    |----------------------------------12--------12-------------|----------------------/10---|
    |-----------------------------------------------------------|-----10--/12----10-12-------|
    |-----------------------------------------------------------|-/13---------13-------------|
    
    |----------------------------------------15b-12-13-12-10-12-10h12p10---10----------------|
    |---------ah------------15--13--15--13-------------------------------13---13b-13p11p10---|
    |----12---10~----10-12b---14--14--14--14-------------------------------------------------|
    |------12------12------------------------------------------------------------------------|
    |-12-------------------------------------------------------------------------------------|
    |----------------------------------------------------------------------------------------|
    
    |-13b-13p12p10---------------------------------------------10----------------------------|
    |--------------13b-13p11p10----10-13-10-----------------------13-10----10----------------|
    |---------------------------12----------13-13-12----10-12b----------13----13-12-10-------|
    |------------------------------------------------12--------------------------------------|
    |----------------------------------------------------------------------------------------|
    |----------------------------------------------------------------------------------------|
    
    |-----------------------------|----------------AH----------------------------------------|
    |-----------------------------|----AH-----------6----------------AH-AH-AH----------------|
    |----10-12-12b-12-10-12----10-|-----5--------------7--5--4--------7--5--4-AH-AH-AH--AH---|
    |-12--------------------12----|--7-----7--6--4--------------7--6-----------7--6--4--6b---|
    |-----------------------------|----------------------------------------------------------|
    |-----------------------------|----------------------------------------------------------|
    
    |------------------------------------|------------------------------|
    |------------------------------------|-----------6-8-8b--6-8-8b-6~--|
    |-------------------AH----------AHAH-|-------5-7-------7------------|
    |--5-3-5br-3-5~--3---5---3-5br~--3-5-|-3-5-7------------------------|
    |------------------5---5-------------|------------------------------|
    |------------------------------------|------------------------------|
    
    |------13-17p13------13-17p13------13-17p13-18p13-17p13------13-17p13------13-17p13-15---|
    |----15--------15--15--------15--15--------------------15--15--------15--15--------------|
    |-/14------------14------------14------------------------14------------14----------------|
    |----------------------------------------------------------------------------------------|
    |----------------------------------------------------------------------------------------|
    |----------------------------------------------------------------------------------------|
    
    |-17p15p13\12h13h15p13p12--------------12h13h15p13p12------------------------------------|
    |-------------------------15---15---15----------------15---15---15-----------------------|
    |----------------------------17---17---------------------17---15---14--------------------|
    |--------------------------------------------------------------------17-17b----r-15h17---|
    |----------------------------------------------------------------------------------------|
    |----------------------------------------------------------------------------------------|
    
    |----------------15-17-18-20-20-20b---r-20b~--20b-r-20b-(23)r-20b-(22)r-20b-(22)r-20b----|
    |----------15-18-------------------------------------------------------------------------|
    |--------17------------------------------------------------------------------------------|
    |---15~----------------------------------------------------------------------------------|
    |-17-------------------------------------------------------------------------------------|
    |----------------------------------------------------------------------------------------|
    
    |-r---20-20b-~-|-17-18-20-18-17-18-17h18p17----17----------------------------------------|
    |--------------|----------------------------20----20b--rb-rbrbr--------------------------|
    |--------------|---------------------------------------------------10-12b-r-10-12-10~\/--|
    |--------------|------------------------------------------------/12----------------bardip|
    |--------------|-------------------------------------------------------------------------|
    |--------------|-------------------------------------------------------------------------| [/SIZE]
     
  3. clemens

    clemens Registrierter Benutzer

    Im Board seit:
    01.02.04
    Zuletzt hier:
    7.10.08
    Beiträge:
    2.384
    Ort:
    Austria
    Zustimmungen:
    9
    Kekse:
    668
    Erstellt: 21.08.04   #3
  4. TM89

    TM89 Registrierter Benutzer

    Im Board seit:
    17.08.04
    Zuletzt hier:
    1.05.12
    Beiträge:
    1.011
    Ort:
    Dülmen
    Zustimmungen:
    0
    Kekse:
    17
    Erstellt: 22.08.04   #4
    SMOKE ON THE WATER von Deep Purple

    --------------------------------------------
    --------------------------------------------
    ------0-3-5-0-3-6u5-0-3-5-3-0-0-----------
    ------0-3-5-0-3-6u5-0-3-5-3-0-0-----------
    --------------------------------------------
    --------------------------------------------

    :great:
     
  5. metalicat23

    metalicat23 Registrierter Benutzer

    Im Board seit:
    16.05.04
    Zuletzt hier:
    24.01.14
    Beiträge:
    132
    Ort:
    Amberg
    Zustimmungen:
    0
    Kekse:
    10
    Erstellt: 22.08.04   #5
  6. thommy

    thommy Registrierter Benutzer

    Im Board seit:
    25.03.04
    Zuletzt hier:
    24.11.11
    Beiträge:
    4.586
    Ort:
    its better to burn out than to fade away ?? ...
    Zustimmungen:
    10
    Kekse:
    1.456
    Erstellt: 25.08.04   #6
    einfach ist z.B

    Come as you are und Smells like teen Spirit von Nirvana
    und Fire, Water, burn von der bloodhoundgang
     
  7. Daweb

    Daweb Registrierter Benutzer

    Im Board seit:
    22.06.04
    Zuletzt hier:
    12.10.06
    Beiträge:
    117
    Ort:
    Bayern
    Zustimmungen:
    0
    Kekse:
    10
    Erstellt: 25.08.04   #7
    Along Comes Mary is auch noch recht einfach...besteht nur aus 5 Powerchords auf E und A Saite....k, erfordert ein wenig schneilligkeit, aber von der Technik her is es einfach...Bad Religion - Punk Rock Song....wobei, eigentlich bestehen so gut wie alle Bad Religion Lieder nur aus Powerchords wenn ich mich nicht irre :D
     
Die Seite wird geladen...

mapping