Have A Cigar (Pink Floyd Cover)

von niRvana, 04.08.08.

  1. niRvana

    niRvana Registrierter Benutzer

    Im Board seit:
    28.08.03
    Zuletzt hier:
    23.01.12
    Beiträge:
    50
    Zustimmungen:
    0
    Kekse:
    34
    Erstellt: 04.08.08   #1
    und zwar in der version von den foo fighters

    youtube link !

    http://www.youtube.com/watch?v=5lD9r7T2VrM

    mein problem bei dem lied liegt gleich im anfangsriff die späteren sachen sind klar

    ein tab gibt vor, das intro so zu spielen

    First guitar plays this riff throughout the intro
    e:---------------------------------------------------------|
    B:---------------------------------------------------------|
    G:---------------------------------------------------------|
    D:---2---------2---2-----2---------2---------2--2-----2----|
    A:---2---------2---2-----2---------2---------2--2-----2----|
    E:-0---0-3--0---------3----3~---0---0--3-0-------3----3~-|

    was aber wenn mans mal nachspielt überhaupt nich hinkommt, man hört ja auch dass eigentlich alle saiten angeschlagen werden, hab auch ein wenig rumprobiert aber nichts wirklich gut passendes herausgefunden.

    vielleicht hat ja einer von euch ne idee.

    danke schonmal
     
  2. hilmi01

    hilmi01 Registrierter Benutzer

    Im Board seit:
    27.12.06
    Zuletzt hier:
    2.12.16
    Beiträge:
    2.979
    Ort:
    München
    Zustimmungen:
    113
    Kekse:
    11.125
    Erstellt: 04.08.08   #2
    Bass & Gitarre spielen in etwa das:


    e |--------------------------|--------------------------|--------------------------|--------------------------|
    h |--------------------------|--------------------------|--------------------------|--------------------------|
    g |--------------------------|--------------------------|--------------------------|--------------------------|
    d |--------------------------|--------------------------|--------------------------|--------------------------|
    a |--------------------------|--------------------------|--------------------------|--------------------------|
    e |--------------------------|--------------------------|--------------------------|--------------------------|

    g |--------------------------|--------------------------|--------------------------|--------------------------|
    d |--------------------------|--------------------------|--------------------------|--------------------------|
    a |--------------------------|--------------------------|--------------------------|--------------------------|
    e |--2--2--2--5--2--~--2--2--|--0--2--5--2--2--5--~--~--|--2--2--2--5--2--~--2--2--|--0--2--5--2--2--5--~--~--|



    e |--------------------------|--------------------------|--------------------------|--------------------------|
    h |--------------------------|--------------------------|--------------------------|--------------------------|
    g |--------------------------|--------------------------|--------------------------|--------------------------|
    d |--4--4--4--4--4--x--x--4--|--4--4--4--4--4--7--~--~--|--4--4--4--4--4--x--x--4--|--4--4--4--4--4--7--~--~--|
    a |--4--4--4--4--4--x--x--4--|--4--4--4--4--4--7--~--~--|--4--4--4--4--4--x--x--4--|--4--4--4--4--4--7--~--~--|
    e |--2--2--2--2--2--x--x--2--|--2--2--2--2--2--5--~--~--|--2--2--2--2--2--x--x--2--|--2--2--2--2--2--5--~--~--|

    g |--------------------------|--------------------------|--------------------------|--------------------------|
    d |--------------------------|--------------------------|--------------------------|--------------------------|
    a |--------------------------|--------------------------|--------------------------|--------------------------|
    e |--2--2--2--5--2--x--x--2--|--0--2--5--2--2--5--~--~--|--2--2--2--5--2--x--x--2--|--0--2--5--2--2--5--~--~--|



    x = Ton abstoppen
    ~ = Ton klingen lassen

     
  3. Mowmow

    Mowmow Registrierter Benutzer

    Im Board seit:
    10.06.07
    Zuletzt hier:
    2.06.16
    Beiträge:
    575
    Ort:
    Paderborn
    Zustimmungen:
    5
    Kekse:
    1.878
    Erstellt: 04.08.08   #3
    Take dis!

    Müsste richtig sein, klingt mehr nach stinknormalen Power-Chords als nach Akkorden, die über die ganzen Saiten gespielt werden.

    edit: Bin einfach mal davon ausgegangen, dass die im Standard Tuning spielen - ist ja in dem Genre eigentlich üblich so...
     

    Anhänge:

  4. niRvana

    niRvana Threadersteller Registrierter Benutzer

    Im Board seit:
    28.08.03
    Zuletzt hier:
    23.01.12
    Beiträge:
    50
    Zustimmungen:
    0
    Kekse:
    34
    Erstellt: 05.08.08   #4
    also weder die erste antwort noch das guitar pro file ähneln sich meiner meinung nach der foo fighters version ...

    hier nochmal ein link zur einzigst existierenden live version

    erkennt man zwar nicht viel, der anfangspart muss aber wohl in den oberen zwei bünden gespielt sein ...

    http://www.youtube.com/watch?v=d7G4MxmEQ90


    danke für eure mühe
     
  5. Szaladin

    Szaladin Registrierter Benutzer

    Im Board seit:
    24.01.08
    Zuletzt hier:
    29.04.16
    Beiträge:
    41
    Ort:
    Zwischen Wissen und Wahnwitz.
    Zustimmungen:
    1
    Kekse:
    38
    Erstellt: 05.08.08   #5
    Also sehr groß sind die Unterschiede zum Original nicht in der Gitarre, die keine Powerchords spielt.

    Nur, dass an manchen Stellen halt mit Powerchords unterbrochen wird.

    Und scheint da noch zu der Gitarre, die fast das Original spielt, eine zweite, die halt die Powerchords als Hintergrund spielt zu kommen.

    Coole Mischung >D
     
  6. hilmi01

    hilmi01 Registrierter Benutzer

    Im Board seit:
    27.12.06
    Zuletzt hier:
    2.12.16
    Beiträge:
    2.979
    Ort:
    München
    Zustimmungen:
    113
    Kekse:
    11.125
    Erstellt: 05.08.08   #6
    Schau Dir mal im Live-Video die Stelle von 0:58 bis 1:03 an: der Gitarrist steht (vom Publikum aus gesehen) links, er greift entweder mit der ganzen Hand oder mit 3 Fingern die Akkorde. Die Riff-Melodie kommt im übrigen vom Bass, nicht von der Gitarre. Den Bass habe ich oben deshalb dazu getabt.
     
  7. Szaladin

    Szaladin Registrierter Benutzer

    Im Board seit:
    24.01.08
    Zuletzt hier:
    29.04.16
    Beiträge:
    41
    Ort:
    Zwischen Wissen und Wahnwitz.
    Zustimmungen:
    1
    Kekse:
    38
    Erstellt: 06.08.08   #7
    Hab mich auch mal an der Gitarre versucht. Find´s so ganz annehmbar.
     

    Anhänge:

    • 1.gp4
      Dateigröße:
      2,7 KB
      Aufrufe:
      21
    • 1.gp5
      Dateigröße:
      4,3 KB
      Aufrufe:
      27
Die Seite wird geladen...

mapping