Intr Billy Idol "Wihgt Wedding"

von michellahayn, 04.12.05.

  1. michellahayn

    michellahayn Registrierter Benutzer

    Im Board seit:
    05.08.04
    Zuletzt hier:
    9.02.10
    Beiträge:
    60
    Zustimmungen:
    0
    Kekse:
    10
    Erstellt: 04.12.05   #1
    Hai alle

    wer kann mir sagen wie die Intro Gitarre bei Wihgt Wedding gespielt wird.
    Klar ist das es 16tel sind aber es hört sich vom Sound so komisch an.
    Ich mein den ersten Takt.

    Bit danne
     
  2. Blubberfabi

    Blubberfabi Registrierter Benutzer

    Im Board seit:
    18.08.03
    Zuletzt hier:
    21.04.15
    Beiträge:
    205
    Ort:
    Bad Säckingen
    Zustimmungen:
    1
    Kekse:
    34
    Erstellt: 04.12.05   #2
    Meinst du das dieses Picking, was ähnlich dem Rebel Yell Picking ist??

    Der spielt mit Zeige, Ring, Mittelfinger die Melodie und mit dem kleinen Finger dieses Picking...
    Sprich, er spielt sowohl mit Plek als auch mit den Fingern (Picking). Ist nich so schwer. Zieh dir ein Tab und dann gut is:-)
    Gruß
    Fabi
     
  3. wonder1908

    wonder1908 Gesperrter Benutzer

    Im Board seit:
    18.06.05
    Zuletzt hier:
    28.10.06
    Beiträge:
    185
    Zustimmungen:
    0
    Kekse:
    116
    Erstellt: 04.12.05   #3
    Code:
                              White Wedding                                   
     
                                                                          Billy Idol
    Track 1
     
         W                   W                   W                 
    E||-------------------|-------------------|-------------------|
    B||-------------------|-------------------|-------------------|
    G||-------------------|-------------------|-------------------|
    D||-------------------|-------------------|-------------------|
    A||-------------------|-------------------|-------------------|
    E||-------------------|-------------------|-------------------|
     
                                              ^                    
      W                   W                   Q    Q    Q    Q     
    -------------------|-------------------|--2-------------------|
    -------------------|-------------------|--3----3--------------|
    -------------------|-------------------|--4---------4---------|
    -------------------|-------------------|--4--------------4----|
    -------------------|-------------------|----------------------|
    -------------------|-------------------|----------------------|
     
                             ^                   ^                 
      Q    Q    Q    Q       W                   W                 
    ------------2---------|--0----------------|--2----------------|
    -------3---------3----|--0----------------|--3----------------|
    --4-------------------|--1----------------|--2----------------|
    ----------------------|--2----------------|--0----------------|
    ----------------------|-------------------|-------------------|
    ----------------------|-------------------|-------------------|
     
                                                    ^                 
      Q    Q    Q    Q       Q    Q    Q    Q       W                 
    --2-------------------|------------2---------|--5----------------|
    -------3--------------|-------3---------3----|--3----------------|
    ------------4---------|--4-------------------|--2----------------|
    -----------------4----|----------------------|--0----------------|
    ----------------------|----------------------|-------------------|
    ----------------------|----------------------|-------------------|
     
      ^                   ^                                                         
      W                   W                                                         
    --0----------------|--5----------------|-------------------|-------------------|
    --0----------------|--3----------------|-------------------|-------------------|
    --1----------------|--2----------------|-------------------|-------------------|
    --2----------------|--0----------------|-------------------|-------------------|
    -------------------|-------------------|-------------------|-------------------|
    -------------------|-------------------|-------------------|-------------------|

    Viel Spaß

    Gruß
    Wonder
     
  4. slash83

    slash83 Registrierter Benutzer

    Im Board seit:
    15.08.04
    Zuletzt hier:
    3.01.13
    Beiträge:
    1.494
    Ort:
    Bayern
    Zustimmungen:
    4
    Kekse:
    1.107
    Erstellt: 06.12.05   #4
    meinst du jetzt das was blubberfabi schon geschrieben hat oder wirklich das ganz am anfang? das ganz am anfang geht so: man lege (drückt nicht) z.b. den mittelfinger über die g-saite und fährt dann die bünde hoch während man mit der anderen hand die 16tel anschlägt. so entsteht eine anzahl von "obertönen" und so wird der erste effekt bei white wedding erzeugt.
     
  5. wonder1908

    wonder1908 Gesperrter Benutzer

    Im Board seit:
    18.06.05
    Zuletzt hier:
    28.10.06
    Beiträge:
    185
    Zustimmungen:
    0
    Kekse:
    116
    Erstellt: 06.12.05   #5
    Wer lesen kann ist klar im Vorteil! Man bin ich ein Blödmann.
    Klar meint er die Obertöne.
    Ich mein, am autentischten klingt es auf der A Saite, knapp vor dem ersten Bund runter Richtung Brücke.

    Gruß
    Wonder
     
Die Seite wird geladen...

mapping