Ist das so Richtig???

von jiminahl, 03.11.07.

  1. jiminahl

    jiminahl Registrierter Benutzer

    Im Board seit:
    17.09.07
    Zuletzt hier:
    9.01.14
    Beiträge:
    136
    Zustimmungen:
    0
    Kekse:
    23
    Erstellt: 03.11.07   #1
    Hallo liebe Leute,
    ich habe mal ne Frage zum folgenden Tab. Und zwar handelt es sich um das weniger bekannt Lied Dancing machnie von Michael jackson. Da ist ein einfaches aber Cooles Solo drin, nun habe ich nach langem suchen den Tab gefunden, finde aber das er komplett Falsch ist bitte um mit Hilfe. Danke im Voraus.

    Gruß Jiminahl

    TAB:
    -------------------------------------------------------------
    -------------------------------------------------------------
    -------------------------------------------------4~~~~~~
    ------6--6s4s6---6s4s6----6s4s6-------------------------
    -------------------------------------------------------------
    -------------------------------------------------------------

    Hörprobe ca 180kb 10 Sekunden
    http://rapidshare.com/files/67131938/New.mp3
     
  2. SugarDaddy

    SugarDaddy Registrierter Benutzer

    Im Board seit:
    27.04.05
    Zuletzt hier:
    2.10.11
    Beiträge:
    43
    Zustimmungen:
    3
    Kekse:
    68
    Erstellt: 03.11.07   #2
    Ja ist auch komplett falsch. Habs mal kurz rausgehört (ist jetzt nur das grundriff, mal die Variationen rausgelassen):

    e-------------------------------
    h---6-s-9-s-6---4-5-6--------
    g---5-s-8-s-5-----------------
    D------------------------6-----
     
Die Seite wird geladen...

mapping