Kann mir mal bitte jemand mit Sanitarium helfen.....

von dogdaysunrise, 27.06.04.

  1. dogdaysunrise

    dogdaysunrise HCA - Gitarren HCA

    Im Board seit:
    21.09.03
    Zuletzt hier:
    26.02.11
    Beiträge:
    2.829
    Ort:
    Kansas, USA
    Zustimmungen:
    3
    Kekse:
    1.295
    Erstellt: 27.06.04   #1
    ...ich weiss das es mal in "guitar" vor laengerer Zeit war und eigentlich kann ichs auch noch so ausm Kopf, aber bei dem einem Part bin ich mir nicht mehr ganz sicher:
    ----------------|----------------|--------|
    ----------------|----------------|--------|
    ------0-------0-|------0---------|--------|
    ----4-------5---|----7-------0---|--0-----|
    --2-------3-----|--5-------4-----|2-----0-|
    0-------0-------|0-------5---5s3-|--3s5---|
    ~~~~~~~~~~~~~~~~~~>....................
    nur ab hier ".", der rest is klar:


    Das hier stimmt nicht ganz und im Netz konnte ich auch nichts brauchbares finden, kann mir vielleicht jemand der das alte Heft noch hat oder der es 100%weiss, diese Stelle mal hier posten, waere sehr nett! Danke! :) ;)
     
  2. dumdidum

    dumdidum Registrierter Benutzer

    Im Board seit:
    10.10.03
    Zuletzt hier:
    13.08.13
    Beiträge:
    911
    Ort:
    Hamburg
    Zustimmungen:
    1
    Kekse:
    26
    Erstellt: 27.06.04   #2
    :confused: das stimmt doch so.
    Die slides und die leere D-Saite aber nicht zur gleichen Zeit. :cool:
     
  3. the_paul

    the_paul Registrierter Benutzer

    Im Board seit:
    03.10.03
    Zuletzt hier:
    8.10.14
    Beiträge:
    2.982
    Ort:
    SU
    Zustimmungen:
    21
    Kekse:
    1.878
    Erstellt: 27.06.04   #3
    ja, das sind alles achtel, wobei die slides immer mit vorhalte-note gespielt werden, d.h. (5-3) wird als achtel gespielt und (3-5) auch, wobei dann die zielnote betont auf die zählzeit fällt. ich weiß jetzt nicht wie ich's besser beschreiben soll.
     
  4. nike_esp

    nike_esp Registrierter Benutzer

    Im Board seit:
    30.04.04
    Zuletzt hier:
    29.04.13
    Beiträge:
    3.054
    Zustimmungen:
    1
    Kekse:
    414
    Erstellt: 27.06.04   #4
    Stimmt doch oder ? ... ich spiele es auch so ! :) ... Das Intro finde ich echt cool von dem Lied !
     
  5. dogdaysunrise

    dogdaysunrise Threadersteller HCA - Gitarren HCA

    Im Board seit:
    21.09.03
    Zuletzt hier:
    26.02.11
    Beiträge:
    2.829
    Ort:
    Kansas, USA
    Zustimmungen:
    3
    Kekse:
    1.295
    Erstellt: 27.06.04   #5
    Dann isses das, ich wusste das es nicht stimmt!
     
  6. Lenz

    Lenz Registrierter Benutzer

    Im Board seit:
    21.05.04
    Zuletzt hier:
    27.01.08
    Beiträge:
    91
    Zustimmungen:
    0
    Kekse:
    10
    Erstellt: 28.06.04   #6
    Wieso holst du dir nicht einfach die Tabulatur von Powertab und Co.?
    Ich mein, da treten solche Probleme weniger oft auf, weil der jenige, der das aufschreibt, es ja selber hört und es deswegen genauer tabbt. Außerdem sind die sowieso viel übersichtlicher.
     
  7. beuluskeulus

    beuluskeulus Registrierter Benutzer

    Im Board seit:
    25.06.04
    Zuletzt hier:
    22.09.09
    Beiträge:
    194
    Ort:
    Lübeck
    Zustimmungen:
    0
    Kekse:
    30
    Erstellt: 28.06.04   #7
    hier sind die tabs für sanatarium!

    sind korrekt!

    evtl in Lucida Console ausdrucken!
    fals sich die sachen verschieben!!!


    und viel späß damit!

    Metallica-sanatari


    Guitar 1

    E||-------12--------3--3h5h3h2--|-------12--------2--2---3-|
    B||-----------12-------0--------|-----------12-------0-----|
    G||-----------------------------|--------------------------|
    D||-----------------------------|--------------------------|
    A||-----------------------------|--------------------------|
    E||--0--------------------------|--0-----------------------|



    --0--------12----------|-----------12----------|-----------12----------|
    ---------------12------|---------------12------|---------------12------|
    -----------------------|-----------------------|-----------------------|
    -----------------------|-----------------------|-----------------------|
    -----------------------|-----------------------|-----------------------|
    --0--------------------|--0--------------------|--0--------------------|



    -----------12------------|--------------------------|
    ---------------12--------|--------------------------|
    -------------------12----|-----------0-----------0--|
    -------------------------|--------4-----------5-----|
    -------------------------|-----2-----------3--------|
    --0----------------------|--0-----------0-----------|



    ---------------------------|---------------|--------------------------|
    ---------------------------|---------------|--------------------------|
    -----------0---------------|---------------|-----------0-----------0--|
    --------7-----------0------|-----0------0--|--------4-----------5-----|
    -----5-----------4---------|--2------------|-----2-----------3--------|
    --0-----------5--------5/3-|--------3/5----|--0-----------0-----------|



    ---------------------------|---------------|--------------------------|
    ---------------------------|---------------|--------------------------|
    -----------0---------------|---------------|-----------0-----------0--|
    --------7-----------0------|-----0------0--|--------4-----------5-----|
    -----5-----------4---------|--2------------|-----2-----------3--------|
    --0-----------5--------5/3-|--------3/5----|--0-----------0-----------|



    ---------------------------|---------------|--------------------------|
    ---------------------------|---------------|--------------------------|
    -----------0---------------|---------------|-----------0-----------0--|
    --------7-----------0------|-----0------0--|--------4-----------5-----|
    -----5-----------4---------|--2------------|-----2-----------3--------|
    --0-----------5--------5/3-|--------3/5----|--0-----------0-----------|



    ---------------------------|---------------|--------------------------|
    ---------------------------|---------------|--------------------------|
    -----------0---------------|---------------|-----------0-----------0--|
    --------7-----------0------|-----0------0--|--------4-----------5-----|
    -----5-----------4---------|--2------------|-----2-----------3--------|
    --0-----------5--------5/3-|--------3/5----|--0-----------0-----------|



    ---------------------------|---------------|--------------------------|
    ---------------------------|---------------|--------------------------|
    -----------0---------------|---------------|-----------0-----------0--|
    --------7-----------0------|-----0------0--|--------4-----------5-----|
    -----5-----------4---------|--2------------|-----2-----------3--------|
    --0-----------5--------5/3-|--------3/5----|--0-----------0-----------|



    ---------------------------|---------------|--------------------------|
    ---------------------------|---------------|--------------------------|
    -----------0---------------|---------------|-----------0-----------0--|
    --------7-----------0------|-----0------0--|--------4-----------5-----|
    -----5-----------4---------|--2------------|-----2-----------3--------|
    --0-----------5--------5/3-|--------3/5----|--0-----------0-----------|



    ---------------------------|---------------|--------------------------|
    ---------------------------|---------------|--------------------------|
    -----------0---------------|---------------|-----------0-----------0--|
    --------7-----------0------|-----0------0--|--------4-----------5-----|
    -----5-----------4---------|--2------------|-----2-----------3--------|
    --0-----------5--------5/3-|--------3/5----|--0-----------0-----------|



    ---------------------------|---------------|--------------------------|
    ---------------------------|---------------|--------------------------|
    -----------0---------------|---------------|-----------0-----------0--|
    --------7-----------0------|-----0------0--|--------4-----------5-----|
    -----5-----------4---------|--2------------|-----2-----------3--------|
    --0-----------5--------5/3-|--------3/5----|--0-----------0-----------|



    ---------------------------|---------------|--------------------------|
    ---------------------------|---------------|--------------------------|
    -----------0---------------|---------------|-----------0-----------0--|
    --------7-----------0------|-----0------0--|--------4-----------5-----|
    -----5-----------4---------|--2------------|-----2-----------3--------|
    --0-----------5--------5/3-|--------3/5----|--0-----------0-----------|



    ---------------------------|---------------|--------------------------|
    ---------------------------|---------------|--------------------------|
    -----------0---------------|---------------|-----------0-----------0--|
    --------7-----------0------|-----0------0--|--------4-----------5-----|
    -----5-----------4---------|--2------------|-----2-----------3--------|
    --0-----------5--------5/3-|--------3/5----|--0-----------0-----------|



    ---------------------------|---------------|--------------------------|
    ---------------------------|---------------|--------------------------|
    -----------0---------------|---------------|-----------0-----------0--|
    --------7-----------0------|-----0------0--|--------4-----------5-----|
    -----5-----------4---------|--2------------|-----2-----------3--------|
    --0-----------5--------5/3-|--------3/5----|--0-----------0-----------|



    ---------------------------|---------------|--------------------------|
    ---------------------------|---------------|--------------------------|
    -----------0---------------|---------------|-----------0-----------0--|
    --------7-----------0------|-----0------0--|--------4-----------5-----|
    -----5-----------4---------|--2------------|-----2-----------3--------|
    --0-----------5--------5/3-|--------3/5----|--0-----------0-----------|



    ---------------------------|---------------|--------------------------|
    ---------------------------|---------------|--------------------------|
    -----------0---------------|---------------|-----------0-----------0--|
    --------7-----------0------|-----0------0--|--------4-----------5-----|
    -----5-----------4---------|--2------------|-----2-----------3--------|
    --0-----------5--------5/3-|--------3/5----|--0-----------0-----------|



    ---------------------------|---------------|-------------------------------|
    ---------------------------|---------------|-------------------------------|
    -----------0---------------|---------------|-------------------5/4-----5/4-|
    --------7-----------0------|-----0------0--|-----------5/4-----5/4-----5/4-|
    -----5-----------4---------|--2------------|-----------5/4-----3/2-----3/2-|
    --0-----------5--------5/3-|--------3/5----|--0----x-x-3/2-x-x-----x-x-----|



    ----------------------------|-------------------------------|
    ----------------------------|-------------------------------|
    ----------------------------|-------------------5/4-----5/4-|
    ----------0h2h0-------------|-----------5/4-----5/4-----5/4-|
    ----------------3-2---------|-----------5/4-----3/2-----3/2-|
    --------------------5-3-2-3-|--0----x-x-3/2-x-x-----x-x-----|



    -----------------------------|-------------------------------|
    -----------------------------|-------------------------------|
    -----------------------------|-------------------5/4-----5/4-|
    -----------------------------|-----------5/4-----5/4-----5/4-|
    ----2-2-2-2-2-2-3-2-----x-3--|-----------5/4-----3/2-----3/2-|
    --------------------3---x-1--|--0----x-x-3/2-x-x-----x-x-----|

    wenn du den rest auch brauchst sag mal bescheid!
     
  8. nike_esp

    nike_esp Registrierter Benutzer

    Im Board seit:
    30.04.04
    Zuletzt hier:
    29.04.13
    Beiträge:
    3.054
    Zustimmungen:
    1
    Kekse:
    414
    Erstellt: 28.06.04   #8
    Rest bitte :D ... kann bis jetzt nur das Intro, aber der Rest wäre auch nicht schlecht :)
     
  9. dogdaysunrise

    dogdaysunrise Threadersteller HCA - Gitarren HCA

    Im Board seit:
    21.09.03
    Zuletzt hier:
    26.02.11
    Beiträge:
    2.829
    Ort:
    Kansas, USA
    Zustimmungen:
    3
    Kekse:
    1.295
    Erstellt: 28.06.04   #9
    Trotzdem 1000 Dank! :)
    Eigentlich gings mir nur um diesen Teil:
    -----|---------------|
    -----|---------------|
    -----|---------------|
    -----|-----0------0--|
    -----|--2------------|
    -5/3-|--------3/5----|
     
Die Seite wird geladen...

mapping