kennt das jemand und weiß wie das weiter geht?

von RAGMAN, 03.08.04.

  1. RAGMAN

    RAGMAN Mod Emeritus - Gitarren Ex-Moderator

    Im Board seit:
    19.08.03
    Zuletzt hier:
    31.08.13
    Beiträge:
    5.410
    Ort:
    zu Hause...
    Zustimmungen:
    12
    Kekse:
    2.538
    Erstellt: 03.08.04   #1
    Code:
    --------------------------
    --------------------------
    --------------------------
    -------5-7---7-6--6-5--5--
    -5-7-8-----8----7----6----
    --------------------------
    
    --------------------------
    --------------------------
    ----------------7-5-5--5-7?
    -------5-7---7-------7--???
    -5-7-8-----8------------???
    --------------------------
    
    kennt das jemand und weiß wie es heißt das weiter geht :confused:

    Habe leider keine Aufnahme davon und habe es nur einmal kurz gehört und das ist schon lange her... :o

    RAGMAN
     
  2. kusi

    kusi Registrierter Benutzer

    Im Board seit:
    19.08.03
    Zuletzt hier:
    9.12.16
    Beiträge:
    1.770
    Ort:
    schweizz
    Zustimmungen:
    24
    Kekse:
    2.272
    Erstellt: 03.08.04   #2
    hi ragman!

    das ist doch so n klassik-lied von - k.A. - bach vielleicht?

    aufjedenfall ne saubekannte und geile melodie!

    spielt mal die töne, und ihr wisst sofort welches er meint!


    mfg kusi
     
  3. kusi

    kusi Registrierter Benutzer

    Im Board seit:
    19.08.03
    Zuletzt hier:
    9.12.16
    Beiträge:
    1.770
    Ort:
    schweizz
    Zustimmungen:
    24
    Kekse:
    2.272
    Erstellt: 03.08.04   #3
    Code:
    --------------------------
    --------------------------
    --------------------------
    -------5-7---7----6--6----5--5--
    -5-7-8-----8-------7--------6----
    --------------------------
    
    --------------------------
    --------------------------
    ----------------7-5---
    -------5-7---7------7---5-7~~
    -5-7-8-----8----------8--
    --------------------------
    
    so in etwa, einfach die tonart hin und her verschieben

    :)
     
  4. ^^""""

    ^^"""" Registrierter Benutzer

    Im Board seit:
    28.02.04
    Zuletzt hier:
    22.01.09
    Beiträge:
    262
    Zustimmungen:
    0
    Kekse:
    104
    Erstellt: 03.08.04   #4
    Hall of the Mountain King oder einfach nur die Halle des Bergkönigs....
     
  5. Child Stringdom

    Child Stringdom Registrierter Benutzer

    Im Board seit:
    11.12.03
    Beiträge:
    209
    Ort:
    Tieringen
    Zustimmungen:
    0
    Kekse:
    10
    Erstellt: 03.08.04   #5
    Das ist "In der Halle des Bergkönigs" von Edward Grieg, wenn ich mich nicht irre

    da war wohl jemand schneller
     
  6. Jarok

    Jarok Registrierter Benutzer

    Im Board seit:
    15.10.03
    Zuletzt hier:
    29.12.13
    Beiträge:
    761
    Zustimmungen:
    0
    Kekse:
    47
    Erstellt: 03.08.04   #6
    von Edvard Grieg... Peer Gynt Suite, "in der Halle des Bergkönigs" ... glaub ich zumindest
     
  7. kusi

    kusi Registrierter Benutzer

    Im Board seit:
    19.08.03
    Zuletzt hier:
    9.12.16
    Beiträge:
    1.770
    Ort:
    schweizz
    Zustimmungen:
    24
    Kekse:
    2.272
    Erstellt: 03.08.04   #7
    bach-grieg-mozart-hammlet - ist doch alles das gleiche :D
     
  8. RAGMAN

    RAGMAN Threadersteller Mod Emeritus - Gitarren Ex-Moderator

    Im Board seit:
    19.08.03
    Zuletzt hier:
    31.08.13
    Beiträge:
    5.410
    Ort:
    zu Hause...
    Zustimmungen:
    12
    Kekse:
    2.538
    Erstellt: 03.08.04   #8
    Danke schön..... :great:

    RAGMAN
     
  9. xpjesus

    xpjesus Registrierter Benutzer

    Im Board seit:
    04.12.03
    Zuletzt hier:
    11.11.05
    Beiträge:
    201
    Ort:
    Buxtehude
    Zustimmungen:
    0
    Kekse:
    10
    Erstellt: 03.08.04   #9
    Kennst du bestimmt von den Savatage-Alben, die haben das Ding nämlich gecovert und sogar ne gleichnamige CD rausgebracht. :D
     
  10. catrat

    catrat Registrierter Benutzer

    Im Board seit:
    25.12.03
    Zuletzt hier:
    19.05.16
    Beiträge:
    921
    Ort:
    Düsseldorf
    Zustimmungen:
    0
    Kekse:
    79
    Erstellt: 03.08.04   #10
    hört euch mal die apocalypticaversion an. das stück muss stark gedämpft und gehackt gespielt werden.
     
  11. MuMan

    MuMan Registrierter Benutzer

    Im Board seit:
    23.08.03
    Zuletzt hier:
    9.10.06
    Beiträge:
    717
    Ort:
    Fulda [Hessen]
    Zustimmungen:
    0
    Kekse:
    27
    Erstellt: 03.08.04   #11
    stimmt genau :)
     
  12. Körk

    Körk Registrierter Benutzer

    Im Board seit:
    29.07.04
    Zuletzt hier:
    18.08.14
    Beiträge:
    700
    Ort:
    nrw
    Zustimmungen:
    4
    Kekse:
    155
    Erstellt: 04.08.04   #12
    Öhm Das spielt Kirk Hammet in seinen Soli! Also wenn er zb alleine nen längeres Solo spuielt!

    das ist:
    "Inspector Gadget"
    und geht richtig:

    pm.........
    E----------------------------------------------------------|
    B----------------------------------------------------------|
    G----------------------------------------------------------|
    D----------------------------------------------------------|
    A-----------0--2---2---1---1---0---0-------------0--2---2--|
    E--0--2--3-------3-------2-------1------0--2--3-------3----|

    E--------------------------|
    B--------------------------|
    G--------------------------|
    D--2--0-----------------2--|
    A-----------------2--2--2--|
    E--------0--2--3--------0--|
     
Die Seite wird geladen...

mapping