Kennt jemand das Solo von Don´t break my heart again/Whitesnake (Studio)?

  • Ersteller SG-Betty
  • Erstellt am
SG-Betty
SG-Betty
Registrierter Benutzer
Zuletzt hier
13.06.17
Registriert
09.01.10
Beiträge
29
Kekse
59
Hi, ich habe bei Ultimate Guitar Tabs für obiges Lied gefunden. Ich habe aber das Gefühl, dass
die 2. Hälfte des Solos falsch notiert ist. Leider finde ich nirgends andere Tabs, auch nichts unter youtube. Vielleicht könnt Ihr mir helfen. Danke!
SOLO: use echo
e|--------------------------5-6~8--10~12--13~14--17-----17`-17`--|
B|--------5-6-8--------5-6-8------------------------15-----------|
G|-7--5-7-------7--5-7-------------------------------------------|
D|---------------------------------------------------------------|
A|---------------------------------------------------------------|
E|---------------------------------------------------------------|


e|-15-13---10-------------------------------------------|
B|-------13---13----13~10-----13`10-----13`10-----------|
G|------------------------12--------12--------12-10`----|
D|------------------------------------------------------|
A|------------------------------------------------------|
E|------------------------------------------------------|


e|------------------------------------------------------|
B|------------------------------------------------------|
G|-----------------------------------------------10`----|
D|-------10----10---12-13-10----10-12-13-10---10--------|
A|-10~12---12----------------12-----------12------------|
E|------------------------------------------------------|


e|---13----17-15---17-15----17-15-----------------------|
B|-15--15-------15------15-------15---------------------|
G|----------------------------------14------------------|
D|------------------------------------------------------|
A|------------------------------------------------------|
E|------------------------------------------------------|


e|-15~17-15----13---------------------------------------|
B|----------15----15--15~12------15~12------------------|
G|-------------------------14~12------14~12-------------|
D|------------------------------------------12----------|
A|------------------------------------------------------|
E|------------------------------------------------------|
 
Eigenschaft
 

Ähnliche Themen


Neue Themen

Unser weiteres Online-Angebot:
Bassic.de · Deejayforum.de · Sequencer.de · Clavio.de · Guitarworld.de · Recording.de

Musiker-Board Logo
Oben