Kleines Prob bei JJ - "Upside Down"

von Red_Devil7, 12.08.06.

  1. Red_Devil7

    Red_Devil7 Registrierter Benutzer

    Im Board seit:
    05.03.04
    Zuletzt hier:
    12.11.12
    Beiträge:
    101
    Zustimmungen:
    0
    Kekse:
    10
    Erstellt: 12.08.06   #1
    So zum oben genannten Lied habe ich im Netz zum Schlusspart folgende Tabs gefunden:

    e--------------------------------------------
    H--------------------------------------------
    G---------4-------4-6------------------------
    D----4h6-----4h6-------4--(---)-4h6 4h6-4-2--
    A--------------------------------------------
    E--------------------------------------------

    e--------------------------------------------
    H--------------------------------------------
    G---------4-------4-6------------------------
    D----4h6-----4h6-------4--(---)-----2-2h4-2--
    A--------------------------------4-----------
    E--------------------------------------------

    ( 911Tabs.Com - External Link )
    ist ja am Anfang auch noch richtig, nur am ende werden die Töne doch höher. Das kann doch nicht stimmen oder? Wenn einer weiß wie man es richtig spielt kann er oder sie mir dann helfen? Bin nicht so der heraushör-gott :(
    mfg

    Edit: nen kleinen Teil hab ich glaub ich schon

    H-----------7----
    G--6---10-----6

    das müsste eig stimmen, danach wirds aber schwer wegen diesen hammerons -.-
    naja ich mach mal weiter^^
    nochmal Edit :D
    habs glau ich komplett. Bitte um überprüfung und gegebenenfalls verbesserung ;)

    H-----------7------10h12--9--7--5h7--7---
    G--6---10-----6-----------------------------6--6--10---6--10--6---10---12---10.... (das am ende ein paar mal weiderholen)
    finde eig dass das geht
    mfg
     
Die Seite wird geladen...

mapping