Könnt mir jemand den Rhytmus tappen?

von AngeloBatio, 28.11.05.

  1. AngeloBatio

    AngeloBatio Registrierter Benutzer

    Im Board seit:
    18.09.04
    Zuletzt hier:
    27.05.07
    Beiträge:
    382
    Zustimmungen:
    3
    Kekse:
    173
    Erstellt: 28.11.05   #1
    Hiho, ich sollte bis Freitag von Bob Dylan Blowin' in the Wind begleiten könne. Leider hab ich keine Ahnung von Klassischen Gitarren und Akkordbegleitungen. Soll heißen: ich kapier nicht in welchem Rhytmus ich schlagen soll :)

    Könnte mir jemand auf Git Pro das aufschreiben?

    Ich sollte es nach

    C F C Am C F G7

    und den Refrain:

    F G7 C E7 Am F G7 C

    spielen.

    Ich wär euch sehr dankbar wenn es möglich wäre, dass mir das jemand macht


    Greetz nstx
     
  2. patrice

    patrice Registrierter Benutzer

    Im Board seit:
    26.12.04
    Zuletzt hier:
    25.09.07
    Beiträge:
    865
    Ort:
    Melchnau (CH)
    Zustimmungen:
    1
    Kekse:
    350
    Erstellt: 29.11.05   #2
    Hallo Nastixx,

    ich kenne leider nur die trad. Variante des Songs, welche ich dir im Anhang angefügt habe.

    Hier mal mein Vorschlag, wie du den Song begleiten könntest:

    Es ist eine Acoustic Version, die von der Rhythmus-Gitarre so gespielt wird:

    Viertel | Viertel | Achtel | Achtel | Viertel
    ..~.........~..........^...........v.........~......

    ~ = gehaltene Note (sog. Tenuto)
    ^ = Abschlag (Downstroke)
    v = Aufschlag (Upstroke)


    Das es dir ja aber sowieso nur mehr um den Rhythmus geht, schlage ich vor, den Rhythmus mit deinen Akkordwerten zu spielen.
    Schau dir die Datei mal an, lass sie dir's mal vorspielen :)

    Patrice
     

    Anhänge:

  3. AngeloBatio

    AngeloBatio Threadersteller Registrierter Benutzer

    Im Board seit:
    18.09.04
    Zuletzt hier:
    27.05.07
    Beiträge:
    382
    Zustimmungen:
    3
    Kekse:
    173
    Erstellt: 29.11.05   #3
    Danke erstmal. Ich werd mir gleich mal die Datei anhören, aber wie meinst du das?

     
  4. patrice

    patrice Registrierter Benutzer

    Im Board seit:
    26.12.04
    Zuletzt hier:
    25.09.07
    Beiträge:
    865
    Ort:
    Melchnau (CH)
    Zustimmungen:
    1
    Kekse:
    350
    Erstellt: 29.11.05   #4
    Nun, wie du daraus lesen kannst, ist dies dieser Tab:

    Code:
    ..............D.............Dadd9........G6?.........G............D..............
    E||------------2--2-------|-----------------------|--3---------2--2-------|
    B||------------3--3-------|--3---------0--0-------|--0---------3--3-------|
    G||------------2--2-------|--2---------0--0-------|--0---------2--2-------|
    D||-------0---------------|--4---------0--0-------|--0---------------2----|
    A||--4---------------0----|------------------2----|-------0---------------|
    E||-----------------------|-------3---------------|-----------------------|
    
    
    .............D..........Dadd9.........D.........Dadd9.......G6?.............. 
    ------------2--2-------|------------2--2-------|-----------------------|
    ------------3--3-------|--3---------3--3-------|--3---------0--0-------|
    ------------2--2-------|--2---------2--2-------|--2---------0--0-------|
    --4----0---------------|--4----0---------------|--4---------0--0-------|
    ------------------0----|------------------0----|------------------2----|
    -----------------------|-----------------------|-------3---------------|
    
    
    .G..............A.....................A..........................................
    --3---------0--0-------|------------0--0-------|----------------------|
    --0---------2--2-------|--2---------2--2-------|----------------------|
    --0---------2--2-------|--2---------2--2-------|----------------------|
    --0---------2--2-------|--2---------2--2-------|----------------------|
    -------0----------0----|-------0----------2----|----------------------|
    -----------------------|-----------------------|----------------------|
    
    ANMERKUNG: Sorry, ich kanns nicht anders darstellen -> sehr ungenau, aber wohl den D-Akkord und den A-Akkord wirst du selbst erkennen können.

    Der Song spielt sich so gesehen also in der Folge D, Dadd9, G6 (bin ich mir nicht sicher!), G, D, etc...

    Ich kenne diese Notation, wo Blowing in the Wind mit C F,... notiert wird, aber die ist mir irgendwie ein bisschen sehr strange ;)

    Patrice
     
  5. AngeloBatio

    AngeloBatio Threadersteller Registrierter Benutzer

    Im Board seit:
    18.09.04
    Zuletzt hier:
    27.05.07
    Beiträge:
    382
    Zustimmungen:
    3
    Kekse:
    173
    Erstellt: 29.11.05   #5
    Oki, jetzt hab ichs, vielen dank :)

    gz nstx
     
Die Seite wird geladen...

mapping