Korrigiert bitte meinen Tab - for whom the bell tolls (Intro)

von Apfelsaft, 05.06.07.

  1. Apfelsaft

    Apfelsaft Registrierter Benutzer

    Im Board seit:
    23.01.07
    Zuletzt hier:
    19.02.17
    Beiträge:
    473
    Ort:
    am schönen Bodensee
    Zustimmungen:
    221
    Kekse:
    5.356
    Erstellt: 05.06.07   #1
    Sers!
    Ich habe einen Entschluss gefasst: So sehr es mich bisweilen lockt, ich werde nie wieder nach Tabs spielen und versuchen, mein Gehör endlich voranzubringen. Jetzt mach ich gerade an Fwtbt ran, weil da der Bass gut zu hören ist, auch wenn er hier eher klingt wie eine Aldi-Gitarre:rolleyes:

    Das markante Riff am Anfang hab ich soweit, jetzt kömmet der Rest. Jedoch frag ich mich, ob das überhaupt Sinn ergibt oder einfach ein wüstes Konglomerat von Fehlern darstellt. Was haltet ihr von

    G-18-17-16-15---15------------------------------
    D-----------------------16-15-17-----------------
    A------------------------------------16-15--------
    E---------------------------------------------------

    ??? Richtig? Falsch? Kompletter Blödsinn?

    Dann mach ich mich ma an die Arbeit, das Lied isch noch lang...
     
  2. Andy1988

    Andy1988 Registrierter Benutzer

    Im Board seit:
    28.09.05
    Zuletzt hier:
    19.02.17
    Beiträge:
    784
    Ort:
    Duisburg
    Zustimmungen:
    57
    Kekse:
    1.157
    Erstellt: 05.06.07   #2
    also ich spiels immer so

    G-19-18-17-16---16---------19---------------------
    D----------------------17-16-------------------------
    A----------------------------------17-16-------------
    E------------------------------------------------------

    oder auch so

    G-19-18-17-16---16H18----------19---------------------
    D---------------------------17-16-------------------------
    A---------------------------------------17-16-------------
    E-----------------------------------------------------------

    aber das is nur so wie rob es bei rock am ring 2006 gespielt hat...die studioversion müsste so wie oben sein
     
  3. Apfelsaft

    Apfelsaft Threadersteller Registrierter Benutzer

    Im Board seit:
    23.01.07
    Zuletzt hier:
    19.02.17
    Beiträge:
    473
    Ort:
    am schönen Bodensee
    Zustimmungen:
    221
    Kekse:
    5.356
    Erstellt: 05.06.07   #3
    Das Riff danach geht glaub ich

    G--------------------------------------------
    D--------------------------------------------
    A-----------------------------------------4--
    E--0-4-2-1--0-4-2-1--0-4-2-1--0-4-2-----


    Während Kirk abgeht die Grundtöne E, G, C, A


    Refrain:

    G--------------------------------------------
    D--------------------------------------------
    A--------------------------------------------
    E--0-0-0-3--0-0-0-5--0-0-0-7-5-3--------


    Während des Vers spielt Cliff glaub ich nur E, G und A


    Und im Outro

    G--------------------------------------------
    D--------------------------------------------
    A--------------------------------------------
    E--3-3--0--3-3-5-5--0---3-3--0--3-3-5-5--0--


    Was haltet ihr davon?
     
  4. GoodYear

    GoodYear Registrierter Benutzer

    Im Board seit:
    20.12.04
    Zuletzt hier:
    17.08.15
    Beiträge:
    1.923
    Ort:
    Köln
    Zustimmungen:
    14
    Kekse:
    2.229
    Erstellt: 05.06.07   #4
    Ich glaube das Riff danach geht eher:
    E--0-3-2-1--0-3-2-1--0-3-2-1--0-2-3-5--.
    Stimmt schon, dass die Terz etwas groß (fast wie 4. Bund) klingt, aber das liegt wohl eher am exzessiven Gitarristen-palm muting oder?

    Und im Refrain erinnere ich mich eher an
    E--0-0-0-3--0-0-0-5--0-0-0-3---6---2---
    und dann
    E--0-0-0-3--0-0-0-5--0-0-0-3-0-0-6--2--1

    Und im Outro:
    E 0--2-2--0--2-2-3-3--0---2-2--0--2-2-3-3--0--

    Natürlich spielt man das nicht nur auf einer Saite, aber du weißt schon ... :rolleyes:

    Gruß,

    Goodyear
     
  5. domek

    domek Registrierter Benutzer

    Im Board seit:
    05.07.05
    Zuletzt hier:
    7.12.12
    Beiträge:
    158
    Zustimmungen:
    0
    Kekse:
    10
    Erstellt: 14.06.07   #5
    alter ich verstehs net :D ... ladet euch einfach powertab oder guitarpro runter und zieht euch von www.ultimate-guitar.com die tabs..... wenn ihr euch dann nich sicher seit einfach mit CD oder zum basslehrer und dann habt ihrs doch... warum so umstaendlich wenns auch leicht geht
     
  6. Oliver_

    Oliver_ Registrierter Benutzer

    Im Board seit:
    15.04.05
    Zuletzt hier:
    1.01.17
    Beiträge:
    2.755
    Ort:
    Frankfurt am Main
    Zustimmungen:
    72
    Kekse:
    2.836
    Erstellt: 14.06.07   #6
    Du hast das ganze irgendwie nicht erfasst, gelle ;)
     
  7. Apfelsaft

    Apfelsaft Threadersteller Registrierter Benutzer

    Im Board seit:
    23.01.07
    Zuletzt hier:
    19.02.17
    Beiträge:
    473
    Ort:
    am schönen Bodensee
    Zustimmungen:
    221
    Kekse:
    5.356
    Erstellt: 14.06.07   #7
    Siehe erster Satz, erster Post, dann ist vielleicht nachvollziehbar, wieso wir uns auf diese stressige Raushörerei einlassen;)
     
Die Seite wird geladen...

mapping