Larry Graham - Pow. Ich krieg nicht alle Noten mit

von Apfelsaft, 06.12.07.

  1. Apfelsaft

    Apfelsaft Registrierter Benutzer

    Im Board seit:
    23.01.07
    Zuletzt hier:
    4.12.16
    Beiträge:
    467
    Ort:
    am schönen Bodensee
    Zustimmungen:
    221
    Kekse:
    5.356
    Erstellt: 06.12.07   #1
    Sers!
    Nun, als noch recht junger Bassist habe ich immer noch nicht begriffen, dass Slappen nur was für Poser ist und versuche mich deshalb an besagtem Lied von Herrn Graham.
    Das Main-Riff geht glaub ich irgendwie so in die Richtung

    ----------------------7-h9---------------------------------------
    -------------------------------------------------7-------5--------
    -5-h7---------5-h7--------5-h7---------------------------------
    -------0--0-0---------------------0--0-0---5------3------------

    s s s s s p s s s s s p s p

    Aber es fällt mir schwer es richtig rauszuhören, weil es recht zügig ist, ich glaube, dass es noch ein paar Dead Notes hat, aber die find ich net :(

    Wie spielt ihr es?
     
  2. bassick

    bassick HCA Bass HCA

    Im Board seit:
    29.05.05
    Zuletzt hier:
    5.12.16
    Beiträge:
    2.163
    Ort:
    Mülheim an der Ruhr
    Zustimmungen:
    60
    Kekse:
    7.920
    Erstellt: 07.12.07   #2
    Der dritte Googleeintrag:

    G|--------------------7h9--x----------------------------|
    D|-----------------------------------------------7----5-|
    A|---5h7-x--------5h7x---x--x-5h7-5h7x------------------|
    E|--------0-0-0-0---------------------0-0-0-3/5---1/3---|

    G|--------------------------------------|
    D|---------5------3--4--5-----3--4--5---|
    A|--------------------------------------|
    E|-----1/3--0---1--2--3--0--1--2--3--0--|
     
  3. tigereye

    tigereye Registrierter Benutzer

    Im Board seit:
    12.02.06
    Zuletzt hier:
    18.05.16
    Beiträge:
    1.035
    Ort:
    kurz hinterm Deich
    Zustimmungen:
    15
    Kekse:
    4.844
    Erstellt: 09.12.07   #3
    Kenne den Song nicht.
    Im Internetx gibt's das Intro ...
    (hängt als -.pdf dran)
     

    Anhänge:

  4. soggy

    soggy Registrierter Benutzer

    Im Board seit:
    22.08.05
    Zuletzt hier:
    24.09.12
    Beiträge:
    191
    Ort:
    L.E (Leipzig)
    Zustimmungen:
    0
    Kekse:
    10
    Erstellt: 16.12.07   #4
    :screwy: Von wem hast du denn diesen Spruch :screwy: :D
     
  5. Apfelsaft

    Apfelsaft Threadersteller Registrierter Benutzer

    Im Board seit:
    23.01.07
    Zuletzt hier:
    4.12.16
    Beiträge:
    467
    Ort:
    am schönen Bodensee
    Zustimmungen:
    221
    Kekse:
    5.356
    Erstellt: 17.12.07   #5
    Copyright by me;)
     
Die Seite wird geladen...

mapping