Let it be solo

von ExiStenZ, 01.10.04.

  1. ExiStenZ

    ExiStenZ Registrierter Benutzer

    Im Board seit:
    05.09.04
    Zuletzt hier:
    18.02.08
    Beiträge:
    73
    Zustimmungen:
    0
    Kekse:
    10
    Erstellt: 01.10.04   #1
    Ich hab ein problem!Ich hab nicht den geringsten plan wie das spielen kann.Was soll 35 heißen ist das 3 und 5 oder was?Bitte helft mir!

    e---------------------------------------------03530---------------|
    b-------------------------------------------1--------31---31------|
    g-----------------------020--------0002--------------------20-----|
    d-------20-00------02----20---2------------------------------20---|
    a----33---3?---3---------3--------------------------------------3-|
    e-35----------35--------------------------------------------------|

    e----------------0-----------03530-----------08530-12-10-8530530------|
    b------------------313------------31------1----------------------3131-|
    g----------20----------202------------02------------------------------|
    d-----2---------------------------------------------------------------|
    a---0---3-------------------------------------------------------------|
    e-3-------------------------------------------------------
     
  2. Pcorpse

    Pcorpse Registrierter Benutzer

    Im Board seit:
    16.11.03
    Zuletzt hier:
    9.04.07
    Beiträge:
    1.058
    Ort:
    Schweiz
    Zustimmungen:
    1
    Kekse:
    88
    Erstellt: 01.10.04   #2
    was ist daran nicht zu verstehen das bedeuted das due 3 und dann 5 spielst
    hast due schonmal eine gitarre mit 35 bünden gesehen
    kannst ja mal bei uli jon roht vorbeischauen :)
    mfg pat
     
  3. Slowhand

    Slowhand Registrierter Benutzer

    Im Board seit:
    19.08.03
    Zuletzt hier:
    3.12.16
    Beiträge:
    78
    Zustimmungen:
    0
    Kekse:
    22
    Erstellt: 01.10.04   #3
    Versuchs mal mit der korrekten 'Let It Be' Power Tab Version hier:

    INSTANT POWER TABS

    ;)
     
  4. Wrathchild

    Wrathchild Registrierter Benutzer

    Im Board seit:
    18.10.03
    Zuletzt hier:
    21.08.13
    Beiträge:
    679
    Ort:
    Ulm
    Zustimmungen:
    12
    Kekse:
    823
    Erstellt: 01.10.04   #4
    Ich hab schon ne Gitarre mit 48 Bünden gesehn :great:
     
Die Seite wird geladen...

mapping